  0
SECTION
  2
ENTITIES
0
LINE
8
Undeflected
10
1280.29
20
-2.54326
11
1280.49
21
-2.53654
62
6
0
LINE
8
Undeflected
10
1281.29
20
-2.50828
11
1280.29
21
-2.54326
62
7
0
LINE
8
Undeflected
10
1281.51
20
-2.50087
11
1281.29
21
-2.50828
62
8
0
LINE
8
Undeflected
10
1281.51
20
-2.50086
11
1281.51
21
-2.50087
62
9
0
LINE
8
Undeflected
10
1280.49
20
-2.53654
11
1280.66
21
-2.53051
62
10
0
LINE
8
Undeflected
10
1280.66
20
-2.53051
11
1281.51
21
-2.50086
62
1
0
LINE
8
Undeflected
10
1280.49
20
-2.53653
11
1280.51
21
-2.32959
62
2
0
LINE
8
Undeflected
10
1281.53
20
-2.27315
11
1281.51
21
-2.50086
62
3
0
LINE
8
Undeflected
10
1281.53
20
-2.27315
11
1281.13
21
-2.28817
62
4
0
LINE
8
Undeflected
10
1281.13
20
-2.28817
11
1280.72
21
-2.30265
62
5
0
LINE
8
Undeflected
10
1280.72
20
-2.30265
11
1280.51
21
-2.31021
62
6
0
LINE
8
Undeflected
10
1280.49
20
-2.53653
11
1280.66
21
-2.5305
62
7
0
LINE
8
Undeflected
10
1281.53
20
-3.5
11
1281.53
21
-2.63353
62
8
0
LINE
8
Undeflected
10
1281.53
20
-2.27315
11
1281.53
21
-1.42151
62
9
0
LINE
8
Undeflected
10
1281.53
20
-1.26287
11
1281.53
21
-2.11124
62
10
0
LINE
8
Undeflected
10
1281.53
20
-4.72685
11
1281.53
21
-5.57849
62
1
0
LINE
8
Undeflected
10
1281.53
20
-4.72685
11
1281.53
21
-3.86296
62
2
0
LINE
8
Undeflected
10
1280.51
20
-4.68979
11
1280.92
21
-4.70475
62
3
0
LINE
8
Undeflected
10
1280.92
20
-4.70475
11
1281.33
21
-4.71925
62
4
0
LINE
8
Undeflected
10
1281.33
20
-4.71925
11
1281.43
21
-4.72307
62
5
0
LINE
8
Undeflected
10
1280.51
20
-4.68979
11
1280.51
21
-5.56028
62
6
0
LINE
8
Undeflected
10
1280.51
20
-1.26221
11
1280.51
21
-2.12916
62
7
0
LINE
8
Undeflected
10
1280.1
20
-2.24408
11
1280.22
21
-2.28784
62
8
0
LINE
8
Undeflected
10
1280.22
20
-2.28784
11
1280.51
21
-2.31021
62
9
0
LINE
8
Undeflected
10
1280.51
20
-4.68979
11
1280.22
21
-4.71216
62
10
0
LINE
8
Undeflected
10
1280.22
20
-4.71216
11
1280.1
21
-4.75592
62
1
0
LINE
8
Undeflected
10
1280.4
20
-12.3934
11
1280.15
21
-12.6292
62
2
0
LINE
8
Undeflected
10
1280.15
20
-12.6292
11
1280.1
21
-12.8305
62
3
0
LINE
8
Undeflected
10
1280.4
20
5.39342
11
1280.15
21
5.62918
62
4
0
LINE
8
Undeflected
10
1280.15
20
5.62918
11
1280.1
21
5.83054
62
5
0
LINE
8
Undeflected
10
1280.29
20
-2.54326
11
1280.1
21
-2.74314
62
6
0
LINE
8
Undeflected
10
1280.51
20
-2.31021
11
1280.3
21
-2.53783
62
7
0
LINE
8
Undeflected
10
1280.3
20
-2.53783
11
1280.29
21
-2.54326
62
8
0
LINE
8
Undeflected
10
1280.29
20
-2.54326
11
1280.1
21
-2.7419
62
9
0
LINE
8
Undeflected
10
1280.51
20
-4.68979
11
1280.49
21
-4.46453
62
10
0
LINE
8
Undeflected
10
1281.51
20
-4.49913
11
1281.53
21
-4.72603
62
1
0
LINE
8
Undeflected
10
1281.51
20
-4.49914
11
1280.49
21
-4.46346
62
2
0
LINE
8
Undeflected
10
1281.51
20
-4.49914
11
1280.49
21
-4.46347
62
3
0
LINE
8
Undeflected
10
1280.29
20
-4.45674
11
1281.29
21
-4.49171
62
4
0
LINE
8
Undeflected
10
1281.29
20
-4.49171
11
1281.51
21
-4.49913
62
5
0
LINE
8
Undeflected
10
1281.51
20
-4.49913
11
1281.51
21
-4.49914
62
6
0
LINE
8
Undeflected
10
1280.49
20
-4.46346
11
1280.29
21
-4.45674
62
7
0
LINE
8
Undeflected
10
1280.1
20
-4.25686
11
1280.1
21
-4.32188
62
8
0
LINE
8
Undeflected
10
1280.1
20
-4.32188
11
1280.1
21
-4.54279
62
9
0
LINE
8
Undeflected
10
1280.1
20
-4.54279
11
1280.1
21
-4.75592
62
10
0
LINE
8
Undeflected
10
1280.1
20
-4.25686
11
1280.29
21
-4.45674
62
1
0
LINE
8
Undeflected
10
1280.29
20
-4.45674
11
1280.5
21
-4.66181
62
2
0
LINE
8
Undeflected
10
1280.5
20
-4.66181
11
1280.51
21
-4.68979
62
3
0
LINE
8
Undeflected
10
1280.29
20
-4.45674
11
1280.1
21
-4.25812
62
4
0
LINE
8
Undeflected
10
1280.1
20
-20.9324
11
1280.1
21
-12.8509
62
5
0
LINE
8
Undeflected
10
1280.1
20
5.85091
11
1280.1
21
10.282
62
6
0
LINE
8
Undeflected
10
1280.1
20
13.1249
11
1280.1
21
23.1324
62
7
0
LINE
8
Undeflected
10
1280.1
20
-20.925
11
1280.1
21
-20.7121
62
8
0
LINE
8
Undeflected
10
1280.1
20
-20.6325
11
1280.1
21
-19.8051
62
9
0
LINE
8
Undeflected
10
1280.1
20
-18.9052
11
1280.1
21
-19.0198
62
10
0
LINE
8
Undeflected
10
1280.1
20
-19.0198
11
1280.1
21
-19.3195
62
1
0
LINE
8
Undeflected
10
1280.1
20
-19.3195
11
1280.1
21
-19.6894
62
2
0
LINE
8
Undeflected
10
1280.1
20
-19.8051
11
1280.1
21
-19.4424
62
3
0
LINE
8
Undeflected
10
1280.1
20
-19.4424
11
1280.1
21
-19.1037
62
4
0
LINE
8
Undeflected
10
1280.1
20
-19.1037
11
1280.1
21
-18.9183
62
5
0
LINE
8
Undeflected
10
1280.1
20
-18.9183
11
1280.1
21
-18.9052
62
6
0
LINE
8
Undeflected
10
1280.1
20
-19.8051
11
1280.1
21
-20.6325
62
7
0
LINE
8
Undeflected
10
1280.1
20
-20.8933
11
1280.1
21
-20.9323
62
8
0
LINE
8
Undeflected
10
1280.1
20
23.1324
11
1280.1
21
-20.9324
62
9
0
LINE
8
Undeflected
10
1280.1
20
-9.5749
11
1280.1
21
-11.7384
62
10
0
LINE
8
Undeflected
10
1280.1
20
-11.7384
11
1280.1
21
-11.3
62
1
0
LINE
8
Undeflected
10
1280.1
20
8.89174
11
1280.1
21
9.03963
62
2
0
LINE
8
Undeflected
10
1280.1
20
9.03963
11
1280.1
21
9.39052
62
3
0
LINE
8
Undeflected
10
1280.1
20
9.39052
11
1280.1
21
9.03656
62
4
0
LINE
8
Undeflected
10
1280.1
20
9.03656
11
1280.1
21
8.89174
62
5
0
LINE
8
Undeflected
10
1280.1
20
8.89174
11
1280.1
21
8.94584
62
6
0
LINE
8
Undeflected
10
1280.1
20
8.94584
11
1280.1
21
9.10196
62
7
0
LINE
8
Undeflected
10
1280.1
20
9.10196
11
1280.1
21
9.34443
62
8
0
LINE
8
Undeflected
10
1280.1
20
9.34443
11
1280.1
21
9.6503
62
9
0
LINE
8
Undeflected
10
1280.1
20
9.6503
11
1280.1
21
9.99111
62
10
0
LINE
8
Undeflected
10
1280.1
20
13.1255
11
1280.1
21
13.0719
62
1
0
LINE
8
Undeflected
10
1280.1
20
13.0719
11
1280.1
21
12.9171
62
2
0
LINE
8
Undeflected
10
1280.1
20
12.9171
11
1280.1
21
12.6771
62
3
0
LINE
8
Undeflected
10
1280.1
20
12.6771
11
1280.1
21
12.3735
62
4
0
LINE
8
Undeflected
10
1280.1
20
12.3735
11
1280.1
21
12.0247
62
5
0
LINE
8
Undeflected
10
1280.1
20
9.99111
11
1280.1
21
9.65026
62
6
0
LINE
8
Undeflected
10
1280.1
20
9.65026
11
1280.1
21
9.34438
62
7
0
LINE
8
Undeflected
10
1280.1
20
9.34438
11
1280.1
21
9.10192
62
8
0
LINE
8
Undeflected
10
1280.1
20
9.10192
11
1280.1
21
8.94582
62
9
0
LINE
8
Undeflected
10
1280.1
20
8.94582
11
1280.1
21
8.89174
62
10
0
LINE
8
Undeflected
10
1279.8
20
23.4324
11
1280.08
21
23.2387
62
1
0
LINE
8
Undeflected
10
1280.08
20
23.2387
11
1280.1
21
23.151
62
2
0
LINE
8
Undeflected
10
1280.1
20
23.1324
11
1279.91
21
23.412
62
3
0
LINE
8
Undeflected
10
1279.91
20
23.412
11
1279.82
21
23.4317
62
4
0
LINE
8
Undeflected
10
1279.8
20
23.4324
11
1279.8
21
23.4324
62
5
0
LINE
8
Undeflected
10
1279.8
20
23.4324
11
1279.75
21
23.4329
62
6
0
LINE
8
Undeflected
10
1279.75
20
23.4329
11
1279.59
21
23.4342
62
7
0
LINE
8
Undeflected
10
1279.59
20
23.4342
11
1279.35
21
23.4364
62
8
0
LINE
8
Undeflected
10
1279.35
20
23.4364
11
1279.04
21
23.4391
62
9
0
LINE
8
Undeflected
10
1279.04
20
23.4391
11
1278.69
21
23.4422
62
10
0
LINE
8
Undeflected
10
1278.61
20
23.4428
11
1261.06
21
23.596
62
1
0
LINE
8
Undeflected
10
1261.39
20
23.5931
11
1261.36
21
23.5933
62
2
0
LINE
8
Undeflected
10
1261.36
20
23.5933
11
1261.27
21
23.5941
62
3
0
LINE
8
Undeflected
10
1261.27
20
23.5941
11
1261.12
21
23.5954
62
4
0
LINE
8
Undeflected
10
1261.12
20
23.5954
11
1261.06
21
23.596
62
5
0
LINE
8
Undeflected
10
1261.06
20
23.596
11
1261.12
21
23.5954
62
6
0
LINE
8
Undeflected
10
1279.26
20
23.4372
11
1279.53
21
23.4348
62
7
0
LINE
8
Undeflected
10
1279.53
20
23.4348
11
1279.71
21
23.4332
62
8
0
LINE
8
Undeflected
10
1279.71
20
23.4332
11
1279.8
21
23.4325
62
9
0
LINE
8
Undeflected
10
1278.61
20
23.4428
11
1278.61
21
23.2516
62
10
0
LINE
8
Undeflected
10
1278.61
20
23.2516
11
1278.61
21
23.1641
62
1
0
LINE
8
Undeflected
10
1278.61
20
23.1429
11
1279.07
21
23.1396
62
2
0
LINE
8
Undeflected
10
1279.07
20
23.1396
11
1279.48
21
23.1367
62
3
0
LINE
8
Undeflected
10
1279.48
20
23.1367
11
1279.82
21
23.1344
62
4
0
LINE
8
Undeflected
10
1279.82
20
23.1344
11
1280.03
21
23.1329
62
5
0
LINE
8
Undeflected
10
1280.03
20
23.1329
11
1280.1
21
23.1324
62
6
0
LINE
8
Undeflected
10
1278.61
20
-20.9429
11
1278.61
21
23.1429
62
7
0
LINE
8
Undeflected
10
1280.1
20
-20.9324
11
1280.03
21
-20.9329
62
8
0
LINE
8
Undeflected
10
1280.03
20
-20.9329
11
1279.82
21
-20.9344
62
9
0
LINE
8
Undeflected
10
1279.82
20
-20.9344
11
1279.48
21
-20.9367
62
10
0
LINE
8
Undeflected
10
1279.48
20
-20.9367
11
1279.07
21
-20.9396
62
1
0
LINE
8
Undeflected
10
1279.07
20
-20.9396
11
1278.61
21
-20.9429
62
2
0
LINE
8
Undeflected
10
1279.8
20
-21.2324
11
1280.08
21
-21.0387
62
3
0
LINE
8
Undeflected
10
1280.08
20
-21.0387
11
1280.1
21
-20.951
62
4
0
LINE
8
Undeflected
10
1278.61
20
-20.9429
11
1278.61
21
-21.2225
62
5
0
LINE
8
Undeflected
10
1278.61
20
-21.2225
11
1278.61
21
-21.2421
62
6
0
LINE
8
Undeflected
10
1278.61
20
-21.2428
11
1278.96
21
-21.2398
62
7
0
LINE
8
Undeflected
10
1278.96
20
-21.2398
11
1279.28
21
-21.2369
62
8
0
LINE
8
Undeflected
10
1279.28
20
-21.2369
11
1279.55
21
-21.2347
62
9
0
LINE
8
Undeflected
10
1279.55
20
-21.2347
11
1279.72
21
-21.2331
62
10
0
LINE
8
Undeflected
10
1279.72
20
-21.2331
11
1279.8
21
-21.2324
62
1
0
LINE
8
Undeflected
10
1277.84
20
-21.2496
11
1277.81
21
-21.2499
62
2
0
LINE
8
Undeflected
10
1277.81
20
-21.2499
11
1277.45
21
-21.2529
62
3
0
LINE
8
Undeflected
10
1277.45
20
-21.2529
11
1277.1
21
-21.256
62
4
0
LINE
8
Undeflected
10
1277.1
20
-21.256
11
1276.88
21
-21.2579
62
5
0
LINE
8
Undeflected
10
1276.68
20
-21.2596
11
1276.42
21
-21.262
62
6
0
LINE
8
Undeflected
10
1276.42
20
-21.262
11
1276.27
21
-21.2633
62
7
0
LINE
8
Undeflected
10
1275.3
20
-21.2717
11
1275.22
21
-21.2724
62
8
0
LINE
8
Undeflected
10
1275.17
20
-21.2728
11
1272.7
21
-21.2944
62
9
0
LINE
8
Undeflected
10
1265.82
20
-21.3545
11
1260.9
21
-21.3974
62
10
0
LINE
8
Undeflected
10
1260.9
20
-21.3974
11
1260.9
21
-21.3974
62
1
0
LINE
8
Undeflected
10
1260.44
20
-21.4014
11
1260.67
21
-21.3994
62
2
0
LINE
8
Undeflected
10
1260.67
20
-21.3994
11
1260.82
21
-21.3981
62
3
0
LINE
8
Undeflected
10
1260.82
20
-21.3981
11
1260.89
21
-21.3974
62
4
0
LINE
8
Undeflected
10
1260.89
20
-21.3974
11
1260.9
21
-21.3974
62
5
0
LINE
8
Undeflected
10
1260.44
20
-21.4014
11
1278.61
21
-21.2428
62
6
0
LINE
8
Undeflected
10
1280.1
20
-19.8048
11
1280.1
21
-19.4274
62
7
0
LINE
8
Undeflected
10
1280.1
20
-19.4274
11
1280.1
21
-19.0819
62
8
0
LINE
8
Undeflected
10
1280.1
20
-19.0819
11
1280.1
21
-18.9123
62
9
0
LINE
8
Undeflected
10
1280.1
20
-18.9123
11
1280.1
21
-18.9051
62
10
0
LINE
8
Undeflected
10
1280.1
20
-19.7177
11
1280.1
21
-19.3345
62
1
0
LINE
8
Undeflected
10
1280.1
20
-19.3345
11
1280.1
21
-19.021
62
2
0
LINE
8
Undeflected
10
1280.1
20
-19.021
11
1280.1
21
-18.9059
62
3
0
LINE
8
Undeflected
10
1279.8
20
-21.2324
11
1279.75
21
-21.2329
62
4
0
LINE
8
Undeflected
10
1279.75
20
-21.2329
11
1279.59
21
-21.2343
62
5
0
LINE
8
Undeflected
10
1279.59
20
-21.2343
11
1279.35
21
-21.2364
62
6
0
LINE
8
Undeflected
10
1279.35
20
-21.2364
11
1279.04
21
-21.2391
62
7
0
LINE
8
Undeflected
10
1279.04
20
-21.2391
11
1278.69
21
-21.2422
62
8
0
LINE
8
Undeflected
10
1260.9
20
-21.3974
11
1260.85
21
-21.3978
62
9
0
LINE
8
Undeflected
10
1260.85
20
-21.3978
11
1260.73
21
-21.3989
62
10
0
LINE
8
Undeflected
10
1260.73
20
-21.3989
11
1260.53
21
-21.4006
62
1
0
LINE
8
Undeflected
10
1260.53
20
-21.4006
11
1260.44
21
-21.4014
62
2
0
LINE
8
Undeflected
10
1260.9
20
-21.3974
11
1260.9
21
-21.3974
62
3
0
LINE
8
Undeflected
10
1260.9
20
-21.3974
11
1265.82
21
-21.3545
62
4
0
LINE
8
Undeflected
10
1265.82
20
-21.3545
11
1260.9
21
-21.3974
62
5
0
LINE
8
Undeflected
10
1260.9
20
-21.3974
11
1272.7
21
-21.2944
62
6
0
LINE
8
Undeflected
10
1275.17
20
-21.2728
11
1275.25
21
-21.2721
62
7
0
LINE
8
Undeflected
10
1276.26
20
-21.2634
11
1276.55
21
-21.2608
62
8
0
LINE
8
Undeflected
10
1276.55
20
-21.2608
11
1276.68
21
-21.2597
62
9
0
LINE
8
Undeflected
10
1276.88
20
-21.2579
11
1277.18
21
-21.2553
62
10
0
LINE
8
Undeflected
10
1277.18
20
-21.2553
11
1277.57
21
-21.2519
62
1
0
LINE
8
Undeflected
10
1277.57
20
-21.2519
11
1277.81
21
-21.2499
62
2
0
LINE
8
Undeflected
10
1259.75
20
-21.2986
11
1260.01
21
-21.1832
62
3
0
LINE
8
Undeflected
10
1260.6
20
24.393
11
1260.6
21
48.8482
62
4
0
LINE
8
Undeflected
10
1259.87
20
24.4029
11
1260.23
21
24.3981
62
5
0
LINE
8
Undeflected
10
1260.23
20
24.3981
11
1260.48
21
24.3947
62
6
0
LINE
8
Undeflected
10
1260.48
20
24.3947
11
1260.59
21
24.3931
62
7
0
LINE
8
Undeflected
10
1260.6
20
24.393
11
1260.66
21
24.0815
62
8
0
LINE
8
Undeflected
10
1260.66
20
24.0815
11
1260.84
21
23.8192
62
9
0
LINE
8
Undeflected
10
1260.84
20
23.8192
11
1261.11
21
23.6474
62
10
0
LINE
8
Undeflected
10
1261.11
20
23.6474
11
1261.34
21
23.5951
62
1
0
LINE
8
Undeflected
10
1260.6
20
48.8482
11
1260.6
21
24.393
62
2
0
LINE
8
Undeflected
10
1260.6
20
37.2829
11
1260.6
21
36.8816
62
3
0
LINE
8
Undeflected
10
1260.6
20
36.8816
11
1260.6
21
36.4846
62
4
0
LINE
8
Undeflected
10
1260.6
20
36.4846
11
1260.6
21
36.0956
62
5
0
LINE
8
Undeflected
10
1260.6
20
36.0956
11
1260.6
21
35.7187
62
6
0
LINE
8
Undeflected
10
1260.6
20
35.7187
11
1260.6
21
35.3576
62
7
0
LINE
8
Undeflected
10
1260.6
20
35.3576
11
1260.6
21
35.0159
62
8
0
LINE
8
Undeflected
10
1260.6
20
35.0159
11
1260.6
21
34.6971
62
9
0
LINE
8
Undeflected
10
1260.6
20
34.6971
11
1260.6
21
34.4042
62
10
0
LINE
8
Undeflected
10
1260.6
20
34.4042
11
1260.6
21
34.1403
62
1
0
LINE
8
Undeflected
10
1260.6
20
34.1403
11
1260.6
21
33.9079
62
2
0
LINE
8
Undeflected
10
1260.6
20
33.9079
11
1260.6
21
33.7095
62
3
0
LINE
8
Undeflected
10
1260.6
20
33.7095
11
1260.6
21
33.5469
62
4
0
LINE
8
Undeflected
10
1260.6
20
33.5469
11
1260.6
21
33.4218
62
5
0
LINE
8
Undeflected
10
1260.6
20
33.4218
11
1260.6
21
33.3354
62
6
0
LINE
8
Undeflected
10
1260.6
20
33.3354
11
1260.6
21
33.2887
62
7
0
LINE
8
Undeflected
10
1260.6
20
33.2798
11
1260.6
21
33.2999
62
8
0
LINE
8
Undeflected
10
1260.6
20
33.2999
11
1260.6
21
33.36
62
9
0
LINE
8
Undeflected
10
1260.6
20
33.36
11
1260.6
21
33.4594
62
10
0
LINE
8
Undeflected
10
1260.6
20
33.4594
11
1260.6
21
33.5972
62
1
0
LINE
8
Undeflected
10
1260.6
20
33.5972
11
1260.6
21
33.772
62
2
0
LINE
8
Undeflected
10
1260.6
20
33.772
11
1260.6
21
33.982
62
3
0
LINE
8
Undeflected
10
1260.6
20
33.982
11
1260.6
21
34.2252
62
4
0
LINE
8
Undeflected
10
1260.6
20
34.2252
11
1260.6
21
34.4991
62
5
0
LINE
8
Undeflected
10
1260.6
20
34.4991
11
1260.6
21
34.801
62
6
0
LINE
8
Undeflected
10
1260.6
20
34.801
11
1260.6
21
35.1279
62
7
0
LINE
8
Undeflected
10
1260.6
20
35.1279
11
1260.6
21
35.4765
62
8
0
LINE
8
Undeflected
10
1260.6
20
35.4765
11
1260.6
21
35.8433
62
9
0
LINE
8
Undeflected
10
1260.6
20
35.8433
11
1260.6
21
36.2246
62
10
0
LINE
8
Undeflected
10
1260.6
20
36.2246
11
1260.6
21
36.6167
62
1
0
LINE
8
Undeflected
10
1260.6
20
36.6167
11
1260.6
21
37.0156
62
2
0
LINE
8
Undeflected
10
1260.6
20
37.3171
11
1260.6
21
37.7184
62
3
0
LINE
8
Undeflected
10
1260.6
20
37.7184
11
1260.6
21
38.1154
62
4
0
LINE
8
Undeflected
10
1260.6
20
38.1154
11
1260.6
21
38.5044
62
5
0
LINE
8
Undeflected
10
1260.6
20
38.5044
11
1260.6
21
38.8813
62
6
0
LINE
8
Undeflected
10
1260.6
20
38.8813
11
1260.6
21
39.2424
62
7
0
LINE
8
Undeflected
10
1260.6
20
39.2424
11
1260.6
21
39.5841
62
8
0
LINE
8
Undeflected
10
1260.6
20
39.5841
11
1260.6
21
39.9029
62
9
0
LINE
8
Undeflected
10
1260.6
20
39.9029
11
1260.6
21
40.1958
62
10
0
LINE
8
Undeflected
10
1260.6
20
40.1958
11
1260.6
21
40.4597
62
1
0
LINE
8
Undeflected
10
1260.6
20
40.4597
11
1260.6
21
40.6921
62
2
0
LINE
8
Undeflected
10
1260.6
20
40.6921
11
1260.6
21
40.8905
62
3
0
LINE
8
Undeflected
10
1260.6
20
40.8905
11
1260.6
21
41.0531
62
4
0
LINE
8
Undeflected
10
1260.6
20
41.0531
11
1260.6
21
41.1782
62
5
0
LINE
8
Undeflected
10
1260.6
20
41.1782
11
1260.6
21
41.2646
62
6
0
LINE
8
Undeflected
10
1260.6
20
41.2646
11
1260.6
21
41.3113
62
7
0
LINE
8
Undeflected
10
1260.6
20
41.3202
11
1260.6
21
41.3001
62
8
0
LINE
8
Undeflected
10
1260.6
20
41.3001
11
1260.6
21
41.24
62
9
0
LINE
8
Undeflected
10
1260.6
20
41.24
11
1260.6
21
41.1406
62
10
0
LINE
8
Undeflected
10
1260.6
20
41.1406
11
1260.6
21
41.0028
62
1
0
LINE
8
Undeflected
10
1260.6
20
41.0028
11
1260.6
21
40.828
62
2
0
LINE
8
Undeflected
10
1260.6
20
40.828
11
1260.6
21
40.618
62
3
0
LINE
8
Undeflected
10
1260.6
20
40.618
11
1260.6
21
40.3748
62
4
0
LINE
8
Undeflected
10
1260.6
20
40.3748
11
1260.6
21
40.1009
62
5
0
LINE
8
Undeflected
10
1260.6
20
40.1009
11
1260.6
21
39.799
62
6
0
LINE
8
Undeflected
10
1260.6
20
39.799
11
1260.6
21
39.4721
62
7
0
LINE
8
Undeflected
10
1260.6
20
39.4721
11
1260.6
21
39.1235
62
8
0
LINE
8
Undeflected
10
1260.6
20
39.1235
11
1260.6
21
38.7567
62
9
0
LINE
8
Undeflected
10
1260.6
20
38.7567
11
1260.6
21
38.3754
62
10
0
LINE
8
Undeflected
10
1260.6
20
38.3754
11
1260.6
21
37.9833
62
1
0
LINE
8
Undeflected
10
1260.6
20
37.9833
11
1260.6
21
37.5844
62
2
0
LINE
8
Undeflected
10
1260.6
20
48.8482
11
1260.41
21
49.1278
62
3
0
LINE
8
Undeflected
10
1260.41
20
49.1278
11
1260.32
21
49.1475
62
4
0
LINE
8
Undeflected
10
1259
20
49.1709
11
1259.11
21
49.169
62
5
0
LINE
8
Undeflected
10
1259.11
20
49.169
11
1259.46
21
49.1628
62
6
0
LINE
8
Undeflected
10
1259.46
20
49.1628
11
1259.79
21
49.1572
62
7
0
LINE
8
Undeflected
10
1259.79
20
49.1572
11
1260.05
21
49.1526
62
8
0
LINE
8
Undeflected
10
1260.05
20
49.1526
11
1260.23
21
49.1496
62
9
0
LINE
8
Undeflected
10
1260.23
20
49.1496
11
1260.3
21
49.1482
62
10
0
LINE
8
Undeflected
10
1260.31
20
49.1482
11
1260.25
21
49.1491
62
1
0
LINE
8
Undeflected
10
1260.25
20
49.1491
11
1260.1
21
49.1518
62
2
0
LINE
8
Undeflected
10
1260.1
20
49.1518
11
1259.85
21
49.1561
62
3
0
LINE
8
Undeflected
10
1259.85
20
49.1561
11
1259.54
21
49.1615
62
4
0
LINE
8
Undeflected
10
1259.54
20
49.1615
11
1259.19
21
49.1676
62
5
0
LINE
8
Undeflected
10
1259.11
20
49.169
11
1259
21
49.1709
62
6
0
LINE
8
Undeflected
10
1259
20
49.1709
11
1259.34
21
49.165
62
7
0
LINE
8
Undeflected
10
1259.34
20
49.165
11
1259
21
49.1709
62
8
0
LINE
8
Undeflected
10
1249.85
20
49.0597
11
1259
21
49.1395
62
9
0
LINE
8
Undeflected
10
1259.11
20
49.1405
11
1259
21
49.1395
62
10
0
LINE
8
Undeflected
10
1259
20
49.1395
11
1249.85
21
49.0597
62
1
0
LINE
8
Undeflected
10
1259
20
49.1395
11
1259.11
21
49.1405
62
2
0
LINE
8
Undeflected
10
1259.11
20
24.413
11
1259.55
21
23.9968
62
3
0
LINE
8
Undeflected
10
1259.55
20
23.9968
11
1259.97
21
23.6719
62
4
0
LINE
8
Undeflected
10
1259.97
20
23.6719
11
1260.36
21
23.4538
62
5
0
LINE
8
Undeflected
10
1260.36
20
23.4538
11
1260.73
21
23.3343
62
6
0
LINE
8
Undeflected
10
1260.73
20
23.3343
11
1261.06
21
23.296
62
7
0
LINE
8
Undeflected
10
1259.11
20
48.8691
11
1259.11
21
24.413
62
8
0
LINE
8
Undeflected
10
1259
20
48.8701
11
1259.11
21
48.8691
62
9
0
LINE
8
Undeflected
10
1259
20
48.8701
11
1259
21
48.8395
62
10
0
LINE
8
Undeflected
10
1259
20
48.8395
11
1259
21
22
62
1
0
LINE
8
Undeflected
10
1259
20
5.4
11
1259
21
-1.4
62
2
0
LINE
8
Undeflected
10
1259
20
-20
11
1259
21
-46.8395
62
3
0
LINE
8
Undeflected
10
1259
20
-46.8395
11
1259
21
-46.8701
62
4
0
LINE
8
Undeflected
10
1259.11
20
-46.8691
11
1259
21
-46.8701
62
5
0
LINE
8
Undeflected
10
1259.11
20
-21.713
11
1259.11
21
-46.8691
62
6
0
LINE
8
Undeflected
10
1260.44
20
-21.1014
11
1260.07
21
-21.1617
62
7
0
LINE
8
Undeflected
10
1260.07
20
-21.1617
11
1259.68
21
-21.3337
62
8
0
LINE
8
Undeflected
10
1259.68
20
-21.3337
11
1259.4
21
-21.5028
62
9
0
LINE
8
Undeflected
10
1259.4
20
-21.5028
11
1259.11
21
-21.713
62
10
0
LINE
8
Undeflected
10
1278.61
20
-20.9429
11
1260.44
21
-21.1014
62
1
0
LINE
8
Undeflected
10
1261.06
20
23.296
11
1278.61
21
23.1429
62
2
0
LINE
8
Undeflected
10
1278.12
20
12.9234
11
1278.01
21
12.9234
62
3
0
LINE
8
Undeflected
10
1278.01
20
12.9234
11
1278.01
21
14.2903
62
4
0
LINE
8
Undeflected
10
1278.01
20
14.2903
11
1277.88
21
14.639
62
5
0
LINE
8
Undeflected
10
1277.88
20
14.639
11
1277.56
21
14.8692
62
6
0
LINE
8
Undeflected
10
1277.56
20
14.8692
11
1277.24
21
14.9606
62
7
0
LINE
8
Undeflected
10
1277.24
20
14.9606
11
1277.05
21
14.9736
62
8
0
LINE
8
Undeflected
10
1275.48
20
14.9738
11
1277.05
21
14.9736
62
9
0
LINE
8
Undeflected
10
1274.78
20
14.2743
11
1274.85
21
14.5914
62
10
0
LINE
8
Undeflected
10
1274.85
20
14.5914
11
1275.07
21
14.8403
62
1
0
LINE
8
Undeflected
10
1275.07
20
14.8403
11
1275.36
21
14.9651
62
2
0
LINE
8
Undeflected
10
1275.36
20
14.9651
11
1275.48
21
14.9738
62
3
0
LINE
8
Undeflected
10
1274.78
20
14.2743
11
1274.78
21
9.72567
62
4
0
LINE
8
Undeflected
10
1275.48
20
9.0262
11
1275.16
21
9.10228
62
5
0
LINE
8
Undeflected
10
1275.16
20
9.10228
11
1274.91
21
9.31477
62
6
0
LINE
8
Undeflected
10
1274.91
20
9.31477
11
1274.79
21
9.61381
62
7
0
LINE
8
Undeflected
10
1274.79
20
9.61381
11
1274.78
21
9.72567
62
8
0
LINE
8
Undeflected
10
1277.05
20
9.02644
11
1275.48
21
9.0262
62
9
0
LINE
8
Undeflected
10
1277.05
20
9.02644
11
1277.41
21
9.07572
62
10
0
LINE
8
Undeflected
10
1277.41
20
9.07572
11
1277.8
21
9.2773
62
1
0
LINE
8
Undeflected
10
1277.8
20
9.2773
11
1277.98
21
9.53689
62
2
0
LINE
8
Undeflected
10
1277.98
20
9.53689
11
1278.01
21
9.70965
62
3
0
LINE
8
Undeflected
10
1278.01
20
9.70965
11
1278.01
21
11.0766
62
4
0
LINE
8
Undeflected
10
1278.01
20
11.0766
11
1278.12
21
11.0766
62
5
0
LINE
8
Undeflected
10
1278.12
20
11.0766
11
1278.45
21
11.2412
62
6
0
LINE
8
Undeflected
10
1278.45
20
11.2412
11
1278.52
21
11.4118
62
7
0
LINE
8
Undeflected
10
1278.52
20
11.4764
11
1278.52
21
12.5236
62
8
0
LINE
8
Undeflected
10
1278.52
20
12.5236
11
1278.36
21
12.8467
62
9
0
LINE
8
Undeflected
10
1278.36
20
12.8467
11
1278.19
21
12.9183
62
10
0
LINE
8
Undeflected
10
1262.73
20
1.92395
11
1262.87
21
1.5705
62
1
0
LINE
8
Undeflected
10
1262.87
20
1.5705
11
1263.22
21
1.42433
62
2
0
LINE
8
Undeflected
10
1270.68
20
1.42547
11
1263.22
21
1.42433
62
3
0
LINE
8
Undeflected
10
1271.18
20
1.92524
11
1271.03
21
1.57195
62
4
0
LINE
8
Undeflected
10
1271.03
20
1.57195
11
1270.68
21
1.42547
62
5
0
LINE
8
Undeflected
10
1271.18
20
1.92524
11
1271.18
21
3.87476
62
6
0
LINE
8
Undeflected
10
1270.68
20
4.37453
11
1271.03
21
4.22823
62
7
0
LINE
8
Undeflected
10
1271.03
20
4.22823
11
1271.18
21
3.87476
62
8
0
LINE
8
Undeflected
10
1263.22
20
4.37567
11
1270.68
21
4.37453
62
9
0
LINE
8
Undeflected
10
1263.22
20
4.37567
11
1262.87
21
4.2293
62
10
0
LINE
8
Undeflected
10
1262.87
20
4.2293
11
1262.73
21
3.87605
62
1
0
LINE
8
Undeflected
10
1262.73
20
3.87605
11
1262.73
21
1.92395
62
2
0
LINE
8
Undeflected
10
1257.48
20
-26.5828
11
1257.58
21
-26.48
62
3
0
LINE
8
Undeflected
10
1257.58
20
-26.48
11
1257.7
21
-26.1972
62
4
0
LINE
8
Undeflected
10
1257.7
20
-26.1972
11
1257.7
21
-20.0261
62
5
0
LINE
8
Undeflected
10
1257.7
20
22.0261
11
1257.7
21
28.1972
62
6
0
LINE
8
Undeflected
10
1257.7
20
28.1972
11
1257.58
21
28.48
62
7
0
LINE
8
Undeflected
10
1257.58
20
28.48
11
1257.48
21
28.5828
62
8
0
LINE
8
Undeflected
10
1257.48
20
28.5828
11
1257.48
21
47.6852
62
9
0
LINE
8
Undeflected
10
1257.48
20
47.6852
11
1257.32
21
48.0072
62
10
0
LINE
8
Undeflected
10
1257.32
20
48.0072
11
1257.08
21
48.0851
62
1
0
LINE
8
Undeflected
10
1257.08
20
48.0851
11
1249.85
21
48.1483
62
2
0
LINE
8
Undeflected
10
1249.85
20
48.1483
11
1249.85
21
48.7597
62
3
0
LINE
8
Undeflected
10
1249.85
20
48.7597
11
1259
21
48.8395
62
4
0
LINE
8
Undeflected
10
1259
20
-46.8395
11
1249.85
21
-46.7597
62
5
0
LINE
8
Undeflected
10
1249.85
20
-46.7597
11
1249.85
21
-46.1483
62
6
0
LINE
8
Undeflected
10
1249.85
20
-46.1483
11
1257.08
21
-46.0851
62
7
0
LINE
8
Undeflected
10
1257.08
20
-46.0851
11
1257.4
21
-45.9194
62
8
0
LINE
8
Undeflected
10
1257.4
20
-45.9194
11
1257.48
21
-45.6852
62
9
0
LINE
8
Undeflected
10
1257.48
20
-45.6852
11
1257.48
21
-26.5828
62
10
0
LINE
8
Undeflected
10
1257.28
20
-44.9802
11
1257.28
21
-44.9595
62
1
0
LINE
8
Undeflected
10
1257.28
20
-45.6852
11
1257.28
21
-44.9802
62
2
0
LINE
8
Undeflected
10
1257.48
20
-45.6852
11
1257.28
21
-45.6852
62
3
0
LINE
8
Undeflected
10
1257.28
20
-26.5828
11
1257.46
21
-26.5828
62
4
0
LINE
8
Undeflected
10
1257.28
20
-44.9567
11
1257.28
21
-26.5828
62
5
0
LINE
8
Undeflected
10
1249.85
20
-46.1483
11
1249.85
21
-45.9488
62
6
0
LINE
8
Undeflected
10
1257.08
20
-45.8851
11
1257.08
21
-46.0851
62
7
0
LINE
8
Undeflected
10
1249.85
20
-45.9483
11
1257.08
21
-45.8851
62
8
0
LINE
8
Undeflected
10
1278.52
20
11.4764
11
1278.32
21
11.4764
62
9
0
LINE
8
Undeflected
10
1278.32
20
12.5236
11
1278.52
21
12.5236
62
10
0
LINE
8
Undeflected
10
1278.32
20
12.5236
11
1278.32
21
11.4764
62
1
0
LINE
8
Undeflected
10
1278.32
20
11.4764
11
1278.3
21
11.503
62
2
0
LINE
8
Undeflected
10
1278.3
20
11.503
11
1278.3
21
12.497
62
3
0
LINE
8
Undeflected
10
1278.3
20
12.497
11
1278.32
21
12.5236
62
4
0
LINE
8
Undeflected
10
1277.05
20
14.7737
11
1277.05
21
14.9664
62
5
0
LINE
8
Undeflected
10
1277.05
20
14.7737
11
1277.37
21
14.7367
62
6
0
LINE
8
Undeflected
10
1277.37
20
14.7367
11
1277.67
21
14.6132
62
7
0
LINE
8
Undeflected
10
1277.67
20
14.6132
11
1277.87
21
14.2903
62
8
0
LINE
8
Undeflected
10
1278.01
20
14.2903
11
1277.88
21
14.2903
62
9
0
LINE
8
Undeflected
10
1277.26
20
14.2692
11
1277.87
21
14.2903
62
10
0
LINE
8
Undeflected
10
1276.91
20
14.7689
11
1277.14
21
14.6434
62
1
0
LINE
8
Undeflected
10
1277.14
20
14.6434
11
1277.26
21
14.342
62
2
0
LINE
8
Undeflected
10
1277.26
20
14.342
11
1277.26
21
14.2922
62
3
0
LINE
8
Undeflected
10
1277.05
20
14.7737
11
1276.91
21
14.7689
62
4
0
LINE
8
Undeflected
10
1275.5
20
14.7473
11
1275.48
21
14.7739
62
5
0
LINE
8
Undeflected
10
1275.48
20
14.7739
11
1277.05
21
14.7737
62
6
0
LINE
8
Undeflected
10
1276.7
20
14.7524
11
1276.81
21
14.7646
62
7
0
LINE
8
Undeflected
10
1276.81
20
14.7646
11
1276.91
21
14.7689
62
8
0
LINE
8
Undeflected
10
1276.7
20
14.7524
11
1276.7
21
14.7471
62
9
0
LINE
8
Undeflected
10
1276.7
20
14.7471
11
1275.5
21
14.7473
62
10
0
LINE
8
Undeflected
10
1275.5
20
14.7473
11
1275.15
21
14.601
62
1
0
LINE
8
Undeflected
10
1275.15
20
14.601
11
1275
21
14.2476
62
2
0
LINE
8
Undeflected
10
1275
20
14.2476
11
1274.98
21
14.2743
62
3
0
LINE
8
Undeflected
10
1274.98
20
14.2743
11
1275.12
21
14.6278
62
4
0
LINE
8
Undeflected
10
1275.12
20
14.6278
11
1275.48
21
14.7739
62
5
0
LINE
8
Undeflected
10
1275
20
14.2476
11
1275
21
9.75236
62
6
0
LINE
8
Undeflected
10
1275
20
9.75236
11
1274.98
21
9.72567
62
7
0
LINE
8
Undeflected
10
1274.98
20
9.72567
11
1274.98
21
14.2743
62
8
0
LINE
8
Undeflected
10
1275
20
9.75236
11
1275.15
21
9.39901
62
9
0
LINE
8
Undeflected
10
1275.15
20
9.39901
11
1275.5
21
9.25274
62
10
0
LINE
8
Undeflected
10
1275.5
20
9.25274
11
1275.48
21
9.22608
62
1
0
LINE
8
Undeflected
10
1275.48
20
9.22608
11
1275.12
21
9.3722
62
2
0
LINE
8
Undeflected
10
1275.12
20
9.3722
11
1274.98
21
9.72567
62
3
0
LINE
8
Undeflected
10
1275.5
20
9.25274
11
1276.7
21
9.25292
62
4
0
LINE
8
Undeflected
10
1276.7
20
9.25292
11
1276.7
21
9.24758
62
5
0
LINE
8
Undeflected
10
1276.91
20
9.23107
11
1276.73
21
9.24211
62
6
0
LINE
8
Undeflected
10
1276.73
20
9.24211
11
1276.7
21
9.24758
62
7
0
LINE
8
Undeflected
10
1276.91
20
9.23107
11
1277.05
21
9.22632
62
8
0
LINE
8
Undeflected
10
1277.05
20
9.22632
11
1275.48
21
9.22608
62
9
0
LINE
8
Undeflected
10
1277.26
20
14.2692
11
1277.2
21
14.2527
62
10
0
LINE
8
Undeflected
10
1277.2
20
14.2527
11
1277.08
21
14.5746
62
1
0
LINE
8
Undeflected
10
1277.08
20
14.5746
11
1276.79
21
14.7451
62
2
0
LINE
8
Undeflected
10
1276.79
20
14.7451
11
1276.74
21
14.7512
62
3
0
LINE
8
Undeflected
10
1261.06
20
23.596
11
1261.06
21
23.4047
62
4
0
LINE
8
Undeflected
10
1261.06
20
23.4047
11
1261.06
21
23.3172
62
5
0
LINE
8
Undeflected
10
1261.06
20
23.596
11
1260.67
21
23.6502
62
6
0
LINE
8
Undeflected
10
1260.67
20
23.6502
11
1260.29
21
23.7852
62
7
0
LINE
8
Undeflected
10
1260.29
20
23.7852
11
1259.9
21
23.9716
62
8
0
LINE
8
Undeflected
10
1259.9
20
23.9716
11
1259.51
21
24.1863
62
9
0
LINE
8
Undeflected
10
1259.51
20
24.1863
11
1259.31
21
24.299
62
10
0
LINE
8
Undeflected
10
1260.6
20
24.393
11
1260.53
21
24.394
62
1
0
LINE
8
Undeflected
10
1260.53
20
24.394
11
1260.32
21
24.3969
62
2
0
LINE
8
Undeflected
10
1260.32
20
24.3969
11
1259.98
21
24.4013
62
3
0
LINE
8
Undeflected
10
1259.98
20
24.4013
11
1259.57
21
24.4069
62
4
0
LINE
8
Undeflected
10
1259.57
20
24.4069
11
1259.11
21
24.413
62
5
0
LINE
8
Undeflected
10
1259.11
20
48.8691
11
1259.57
21
48.8626
62
6
0
LINE
8
Undeflected
10
1259.57
20
48.8626
11
1259.98
21
48.8568
62
7
0
LINE
8
Undeflected
10
1259.98
20
48.8568
11
1260.32
21
48.8522
62
8
0
LINE
8
Undeflected
10
1260.32
20
48.8522
11
1260.53
21
48.8492
62
9
0
LINE
8
Undeflected
10
1260.53
20
48.8492
11
1260.6
21
48.8482
62
10
0
LINE
8
Undeflected
10
1259.11
20
48.8691
11
1259.11
21
49.1486
62
1
0
LINE
8
Undeflected
10
1259.11
20
49.1486
11
1259.11
21
49.1683
62
2
0
LINE
8
Undeflected
10
1259
20
49.1395
11
1259
21
48.9535
62
3
0
LINE
8
Undeflected
10
1259
20
48.9535
11
1259
21
48.8701
62
4
0
LINE
8
Undeflected
10
1249.85
20
48.7597
11
1249.85
21
49.045
62
5
0
LINE
8
Undeflected
10
1249.85
20
49.045
11
1249.85
21
49.0597
62
6
0
LINE
8
Undeflected
10
1257.08
20
48.0851
11
1257.08
21
47.8856
62
7
0
LINE
8
Undeflected
10
1249.85
20
47.9483
11
1249.85
21
48.1341
62
8
0
LINE
8
Undeflected
10
1257.08
20
47.8851
11
1249.85
21
47.9483
62
9
0
LINE
8
Undeflected
10
1257.48
20
28.5828
11
1257.28
21
28.5828
62
10
0
LINE
8
Undeflected
10
1257.28
20
47.6852
11
1257.48
21
47.6852
62
1
0
LINE
8
Undeflected
10
1257.28
20
46.9784
11
1257.28
21
47.6852
62
2
0
LINE
8
Undeflected
10
1257.28
20
46.9603
11
1257.28
21
46.9774
62
3
0
LINE
8
Undeflected
10
1257.28
20
28.5828
11
1257.28
21
46.9567
62
4
0
LINE
8
Undeflected
10
1257.28
20
28.5828
11
1257.28
21
22.1418
62
5
0
LINE
8
Undeflected
10
1257.08
20
46.9567
11
1257.28
21
46.9567
62
6
0
LINE
8
Undeflected
10
1257.08
20
22.2344
11
1257.08
21
46.9567
62
7
0
LINE
8
Undeflected
10
1256.02
20
24
11
1256.02
21
35
62
8
0
LINE
8
Undeflected
10
1254.02
20
37
11
1235.75
21
37
62
9
0
LINE
8
Undeflected
10
1235.75
20
38.2684
11
1235.75
21
37
62
10
0
LINE
8
Undeflected
10
1235.75
20
38.2684
11
1236.66
21
38.2684
62
1
0
LINE
8
Undeflected
10
1236.66
20
38.2684
11
1237.06
21
38.3373
62
2
0
LINE
8
Undeflected
10
1237.06
20
38.3373
11
1237.39
21
38.4689
62
3
0
LINE
8
Undeflected
10
1237.39
20
38.4689
11
1237.74
21
38.6547
62
4
0
LINE
8
Undeflected
10
1237.74
20
38.6547
11
1237.74
21
45.3452
62
5
0
LINE
8
Undeflected
10
1229.86
20
45.3452
11
1237.74
21
45.3452
62
6
0
LINE
8
Undeflected
10
1229.86
20
45.3452
11
1229.86
21
45.8496
62
7
0
LINE
8
Undeflected
10
1229.86
20
45.8496
11
1232.92
21
48.9082
62
8
0
LINE
8
Undeflected
10
1232.92
20
48.9082
11
1248.88
21
48.9099
62
9
0
LINE
8
Undeflected
10
1248.88
20
48.9099
11
1248.88
21
47.8105
62
10
0
LINE
8
Undeflected
10
1248.88
20
47.8105
11
1249.05
21
47.4873
62
1
0
LINE
8
Undeflected
10
1249.05
20
47.4873
11
1249.28
21
47.4107
62
2
0
LINE
8
Undeflected
10
1249.28
20
47.4107
11
1255.38
21
47.4107
62
3
0
LINE
8
Undeflected
10
1255.38
20
47.4107
11
1257.08
21
46.9567
62
4
0
LINE
8
Undeflected
10
1257.08
20
22.2344
11
1256.75
21
22.4562
62
5
0
LINE
8
Undeflected
10
1256.75
20
22.4562
11
1256.47
21
22.7396
62
6
0
LINE
8
Undeflected
10
1256.47
20
22.7396
11
1256.25
21
23.0733
62
7
0
LINE
8
Undeflected
10
1256.25
20
23.0733
11
1256.1
21
23.4438
62
8
0
LINE
8
Undeflected
10
1256.1
20
23.4438
11
1256.03
21
23.8366
62
9
0
LINE
8
Undeflected
10
1235.55
20
38.2684
11
1235.74
21
38.2684
62
10
0
LINE
8
Undeflected
10
1235.55
20
37
11
1235.55
21
38.2684
62
1
0
LINE
8
Undeflected
10
1260.6
20
-46.8482
11
1260.6
21
-23.9
62
2
0
LINE
8
Undeflected
10
1260.6
20
-23.9
11
1260.6
21
-21.6974
62
3
0
LINE
8
Undeflected
10
1260.5
20
-46.8496
11
1260.4
21
-46.8509
62
4
0
LINE
8
Undeflected
10
1260.6
20
-21.6974
11
1260.53
21
-21.6982
62
5
0
LINE
8
Undeflected
10
1260.53
20
-21.6982
11
1260.32
21
-21.7004
62
6
0
LINE
8
Undeflected
10
1260.32
20
-21.7004
11
1259.98
21
-21.7038
62
7
0
LINE
8
Undeflected
10
1259.98
20
-21.7038
11
1259.79
21
-21.7059
62
8
0
LINE
8
Undeflected
10
1260.6
20
-21.6974
11
1260.6
21
-46.8482
62
9
0
LINE
8
Undeflected
10
1260.6
20
-21.6974
11
1260.6
21
-22.3828
62
10
0
LINE
8
Undeflected
10
1260.6
20
-22.3828
11
1260.6
21
-22.6678
62
1
0
LINE
8
Undeflected
10
1260.6
20
-22.6678
11
1260.6
21
-22.6825
62
2
0
LINE
8
Undeflected
10
1260.6
20
-22.6825
11
1260.6
21
-22.4758
62
3
0
LINE
8
Undeflected
10
1260.6
20
-22.4758
11
1260.6
21
-22.3828
62
4
0
LINE
8
Undeflected
10
1260.6
20
-22.3828
11
1260.6
21
-21.6974
62
5
0
LINE
8
Undeflected
10
1260.6
20
-21.6974
11
1260.6
21
-22.4
62
6
0
LINE
8
Undeflected
10
1260.6
20
-22.4
11
1260.6
21
-22.6853
62
7
0
LINE
8
Undeflected
10
1260.6
20
-22.6853
11
1260.6
21
-22.7
62
8
0
LINE
8
Undeflected
10
1260.6
20
-22.7
11
1260.6
21
-22.493
62
9
0
LINE
8
Undeflected
10
1260.6
20
-22.493
11
1260.6
21
-22.4
62
10
0
LINE
8
Undeflected
10
1260.6
20
-22.4
11
1260.6
21
-21.6974
62
1
0
LINE
8
Undeflected
10
1260.6
20
-35.3171
11
1260.6
21
-35.7184
62
2
0
LINE
8
Undeflected
10
1260.6
20
-35.7184
11
1260.6
21
-36.1154
62
3
0
LINE
8
Undeflected
10
1260.6
20
-36.1154
11
1260.6
21
-36.5044
62
4
0
LINE
8
Undeflected
10
1260.6
20
-36.5044
11
1260.6
21
-36.8813
62
5
0
LINE
8
Undeflected
10
1260.6
20
-36.8813
11
1260.6
21
-37.2424
62
6
0
LINE
8
Undeflected
10
1260.6
20
-37.2424
11
1260.6
21
-37.5841
62
7
0
LINE
8
Undeflected
10
1260.6
20
-37.5841
11
1260.6
21
-37.9029
62
8
0
LINE
8
Undeflected
10
1260.6
20
-37.9029
11
1260.6
21
-38.1958
62
9
0
LINE
8
Undeflected
10
1260.6
20
-38.1958
11
1260.6
21
-38.4597
62
10
0
LINE
8
Undeflected
10
1260.6
20
-38.4597
11
1260.6
21
-38.6921
62
1
0
LINE
8
Undeflected
10
1260.6
20
-38.6921
11
1260.6
21
-38.8905
62
2
0
LINE
8
Undeflected
10
1260.6
20
-38.8905
11
1260.6
21
-39.0531
62
3
0
LINE
8
Undeflected
10
1260.6
20
-39.0531
11
1260.6
21
-39.1782
62
4
0
LINE
8
Undeflected
10
1260.6
20
-39.1782
11
1260.6
21
-39.2646
62
5
0
LINE
8
Undeflected
10
1260.6
20
-39.2646
11
1260.6
21
-39.3113
62
6
0
LINE
8
Undeflected
10
1260.6
20
-39.3202
11
1260.6
21
-39.3001
62
7
0
LINE
8
Undeflected
10
1260.6
20
-39.3001
11
1260.6
21
-39.24
62
8
0
LINE
8
Undeflected
10
1260.6
20
-39.24
11
1260.6
21
-39.1406
62
9
0
LINE
8
Undeflected
10
1260.6
20
-39.1406
11
1260.6
21
-39.0028
62
10
0
LINE
8
Undeflected
10
1260.6
20
-39.0028
11
1260.6
21
-38.828
62
1
0
LINE
8
Undeflected
10
1260.6
20
-38.828
11
1260.6
21
-38.618
62
2
0
LINE
8
Undeflected
10
1260.6
20
-38.618
11
1260.6
21
-38.3748
62
3
0
LINE
8
Undeflected
10
1260.6
20
-38.3748
11
1260.6
21
-38.1009
62
4
0
LINE
8
Undeflected
10
1260.6
20
-38.1009
11
1260.6
21
-37.799
62
5
0
LINE
8
Undeflected
10
1260.6
20
-37.799
11
1260.6
21
-37.4721
62
6
0
LINE
8
Undeflected
10
1260.6
20
-37.4721
11
1260.6
21
-37.1235
62
7
0
LINE
8
Undeflected
10
1260.6
20
-37.1235
11
1260.6
21
-36.7567
62
8
0
LINE
8
Undeflected
10
1260.6
20
-36.7567
11
1260.6
21
-36.3754
62
9
0
LINE
8
Undeflected
10
1260.6
20
-36.3754
11
1260.6
21
-35.9833
62
10
0
LINE
8
Undeflected
10
1260.6
20
-35.9833
11
1260.6
21
-35.5844
62
1
0
LINE
8
Undeflected
10
1260.6
20
-35.2829
11
1260.6
21
-34.8816
62
2
0
LINE
8
Undeflected
10
1260.6
20
-34.8816
11
1260.6
21
-34.4846
62
3
0
LINE
8
Undeflected
10
1260.6
20
-34.4846
11
1260.6
21
-34.0956
62
4
0
LINE
8
Undeflected
10
1260.6
20
-34.0956
11
1260.6
21
-33.7187
62
5
0
LINE
8
Undeflected
10
1260.6
20
-33.7187
11
1260.6
21
-33.3576
62
6
0
LINE
8
Undeflected
10
1260.6
20
-33.3576
11
1260.6
21
-33.0159
62
7
0
LINE
8
Undeflected
10
1260.6
20
-33.0159
11
1260.6
21
-32.6971
62
8
0
LINE
8
Undeflected
10
1260.6
20
-32.6971
11
1260.6
21
-32.4042
62
9
0
LINE
8
Undeflected
10
1260.6
20
-32.4042
11
1260.6
21
-32.1403
62
10
0
LINE
8
Undeflected
10
1260.6
20
-32.1403
11
1260.6
21
-31.9079
62
1
0
LINE
8
Undeflected
10
1260.6
20
-31.9079
11
1260.6
21
-31.7095
62
2
0
LINE
8
Undeflected
10
1260.6
20
-31.7095
11
1260.6
21
-31.5469
62
3
0
LINE
8
Undeflected
10
1260.6
20
-31.5469
11
1260.6
21
-31.4218
62
4
0
LINE
8
Undeflected
10
1260.6
20
-31.4218
11
1260.6
21
-31.3354
62
5
0
LINE
8
Undeflected
10
1260.6
20
-31.3354
11
1260.6
21
-31.2887
62
6
0
LINE
8
Undeflected
10
1260.6
20
-31.2798
11
1260.6
21
-31.2999
62
7
0
LINE
8
Undeflected
10
1260.6
20
-31.2999
11
1260.6
21
-31.36
62
8
0
LINE
8
Undeflected
10
1260.6
20
-31.36
11
1260.6
21
-31.4594
62
9
0
LINE
8
Undeflected
10
1260.6
20
-31.4594
11
1260.6
21
-31.5972
62
10
0
LINE
8
Undeflected
10
1260.6
20
-31.5972
11
1260.6
21
-31.772
62
1
0
LINE
8
Undeflected
10
1260.6
20
-31.772
11
1260.6
21
-31.982
62
2
0
LINE
8
Undeflected
10
1260.6
20
-31.982
11
1260.6
21
-32.2252
62
3
0
LINE
8
Undeflected
10
1260.6
20
-32.2252
11
1260.6
21
-32.4991
62
4
0
LINE
8
Undeflected
10
1260.6
20
-32.4991
11
1260.6
21
-32.801
62
5
0
LINE
8
Undeflected
10
1260.6
20
-32.801
11
1260.6
21
-33.1279
62
6
0
LINE
8
Undeflected
10
1260.6
20
-33.1279
11
1260.6
21
-33.4765
62
7
0
LINE
8
Undeflected
10
1260.6
20
-33.4765
11
1260.6
21
-33.8433
62
8
0
LINE
8
Undeflected
10
1260.6
20
-33.8433
11
1260.6
21
-34.2246
62
9
0
LINE
8
Undeflected
10
1260.6
20
-34.2246
11
1260.6
21
-34.6167
62
10
0
LINE
8
Undeflected
10
1260.6
20
-34.6167
11
1260.6
21
-35.0156
62
1
0
LINE
8
Undeflected
10
1260.6
20
-27.0424
11
1260.6
21
-23.8576
62
2
0
LINE
8
Undeflected
10
1260.6
20
-23.273
11
1260.6
21
-23.2593
62
3
0
LINE
8
Undeflected
10
1260.6
20
-23.2579
11
1260.6
21
-23.2579
62
4
0
LINE
8
Undeflected
10
1260.6
20
-23.2579
11
1260.6
21
-23.2654
62
5
0
LINE
8
Undeflected
10
1260.6
20
-23.8576
11
1260.6
21
-27.0424
62
6
0
LINE
8
Undeflected
10
1260.6
20
-27.6421
11
1260.6
21
-27.6421
62
7
0
LINE
8
Undeflected
10
1260.6
20
-31.3934
11
1260.6
21
-28.6066
62
8
0
LINE
8
Undeflected
10
1260.6
20
-28.6066
11
1260.6
21
-31.3934
62
9
0
LINE
8
Undeflected
10
1260.6
20
-31.2798
11
1260.6
21
-28.6066
62
10
0
LINE
8
Undeflected
10
1260.6
20
-28.6066
11
1260.6
21
-31.2798
62
1
0
LINE
8
Undeflected
10
1260.31
20
-47.1482
11
1260.58
21
-46.952
62
2
0
LINE
8
Undeflected
10
1260.58
20
-46.952
11
1260.6
21
-46.8642
62
3
0
LINE
8
Undeflected
10
1260.31
20
-47.1482
11
1260.31
21
-47.1482
62
4
0
LINE
8
Undeflected
10
1260.31
20
-47.1482
11
1260.25
21
-47.1491
62
5
0
LINE
8
Undeflected
10
1260.25
20
-47.1491
11
1260.1
21
-47.1518
62
6
0
LINE
8
Undeflected
10
1260.1
20
-47.1518
11
1259.85
21
-47.1561
62
7
0
LINE
8
Undeflected
10
1249.85
20
-47.0597
11
1259
21
-47.1395
62
8
0
LINE
8
Undeflected
10
1259
20
-46.8701
11
1259
21
-47.1269
62
9
0
LINE
8
Undeflected
10
1259
20
-47.1269
11
1259
21
-47.1395
62
10
0
LINE
8
Undeflected
10
1249.85
20
-47.0597
11
1249.85
21
-46.8524
62
1
0
LINE
8
Undeflected
10
1249.85
20
-46.8524
11
1249.85
21
-46.7597
62
2
0
LINE
8
Undeflected
10
1259.11
20
-47.1405
11
1254.4
21
-47.0994
62
3
0
LINE
8
Undeflected
10
1259
20
-47.1395
11
1259.11
21
-47.1405
62
4
0
LINE
8
Undeflected
10
1259.11
20
-47.1405
11
1259
21
-47.1395
62
5
0
LINE
8
Undeflected
10
1254.6
20
-45.6493
11
1254.6
21
-45.9068
62
6
0
LINE
8
Undeflected
10
1256.69
20
-45.3163
11
1257.28
21
-45.3215
62
7
0
LINE
8
Undeflected
10
1254.5
20
-45.6493
11
1254.5
21
-45.9077
62
8
0
LINE
8
Undeflected
10
1257.16
20
-45.1911
11
1257.28
21
-45.1921
62
9
0
LINE
8
Undeflected
10
1249.65
20
-46.6309
11
1249.65
21
-46.8434
62
10
0
LINE
8
Undeflected
10
1249.65
20
-46.8597
11
1249.65
21
-46.8597
62
1
0
LINE
8
Undeflected
10
1249.65
20
-46.8597
11
1249.65
21
-46.8547
62
2
0
LINE
8
Undeflected
10
1257.48
20
28.5828
11
1257.58
21
28.48
62
3
0
LINE
8
Undeflected
10
1257.7
20
28.1972
11
1257.7
21
22.0261
62
4
0
LINE
8
Undeflected
10
1257.7
20
-20.0261
11
1257.7
21
-26.1969
62
5
0
LINE
8
Undeflected
10
1257.7
20
-26.1972
11
1257.58
21
-26.48
62
6
0
LINE
8
Undeflected
10
1236.66
20
-36.2684
11
1236.96
21
-36.3079
62
7
0
LINE
8
Undeflected
10
1237.26
20
-36.4118
11
1237.37
21
-36.4613
62
8
0
LINE
8
Undeflected
10
1231.62
20
-42.5955
11
1231.62
21
-42.6137
62
9
0
LINE
8
Undeflected
10
1231.62
20
-42.6138
11
1231.6
21
-42.6188
62
10
0
LINE
8
Undeflected
10
1229.81
20
-42.7047
11
1229.62
21
-42.7047
62
1
0
LINE
8
Undeflected
10
1229.62
20
-42.7265
11
1229.66
21
-43.1349
62
2
0
LINE
8
Undeflected
10
1229.66
20
-43.1349
11
1229.66
21
-43.8504
62
3
0
LINE
8
Undeflected
10
1235.58
20
-36.2684
11
1235.65
21
-36.2684
62
4
0
LINE
8
Undeflected
10
1237.41
20
-36.5768
11
1237.07
21
-36.509
62
5
0
LINE
8
Undeflected
10
1237.07
20
-36.509
11
1236.68
21
-36.4682
62
6
0
LINE
8
Undeflected
10
1235.68
20
-36.5022
11
1235.68
21
-36.5023
62
7
0
LINE
8
Undeflected
10
1235.68
20
-36.5023
11
1235.6
21
-36.5063
62
8
0
LINE
8
Undeflected
10
1235.52
20
-36.5091
11
1235.74
21
-36.6748
62
9
0
LINE
8
Undeflected
10
1235.76
20
-36.7043
11
1235.76
21
-42.5566
62
10
0
LINE
8
Undeflected
10
1229.68
20
-44.0074
11
1229.68
21
-44.0083
62
1
0
LINE
8
Undeflected
10
1229.68
20
-44.0083
11
1229.71
21
-44.0448
62
2
0
LINE
8
Undeflected
10
1229.66
20
-43.8504
11
1229.71
21
-43.9793
62
3
0
LINE
8
Undeflected
10
1237.41
20
-36.5768
11
1237.41
21
-36.4766
62
4
0
LINE
8
Undeflected
10
1254.4
20
-45.6493
11
1254.4
21
-45.9085
62
5
0
LINE
8
Undeflected
10
1249.85
20
-46.9544
11
1249.85
21
-46.9914
62
6
0
LINE
8
Undeflected
10
1249.85
20
-46.5597
11
1249.85
21
-46.8924
62
7
0
LINE
8
Undeflected
10
1249.85
20
-46.8924
11
1249.85
21
-46.9249
62
8
0
LINE
8
Undeflected
10
1249.65
20
-46.5597
11
1249.84
21
-46.5597
62
9
0
LINE
8
Undeflected
10
1249.65
20
-46.8597
11
1249.84
21
-47.0592
62
10
0
LINE
8
Undeflected
10
1249.65
20
-46.8597
11
1249.65
21
-46.6684
62
1
0
LINE
8
Undeflected
10
1249.65
20
-46.6684
11
1249.65
21
-46.5809
62
2
0
LINE
8
Undeflected
10
1249.85
20
-47.0597
11
1249.65
21
-46.8556
62
3
0
LINE
8
Undeflected
10
1249.65
20
-45.6493
11
1249.65
21
-45.75
62
4
0
LINE
8
Undeflected
10
1249.65
20
-45.75
11
1249.65
21
-46.0647
62
5
0
LINE
8
Undeflected
10
1249.65
20
-46.0647
11
1249.65
21
-46.1483
62
6
0
LINE
8
Undeflected
10
1249.65
20
-46.1483
11
1249.65
21
-46.7597
62
7
0
LINE
8
Undeflected
10
1249.65
20
-46.7597
11
1249.65
21
-46.8597
62
8
0
LINE
8
Undeflected
10
1249.65
20
-46.8597
11
1249.65
21
-46.8597
62
9
0
LINE
8
Undeflected
10
1249.65
20
-46.5597
11
1249.65
21
-45.6493
62
10
0
LINE
8
Undeflected
10
1249.85
20
-46.5597
11
1249.85
21
-46.1481
62
1
0
LINE
8
Undeflected
10
1249.85
20
-45.9483
11
1249.85
21
-45.6493
62
2
0
LINE
8
Undeflected
10
1254.4
20
-45.9085
11
1254.4
21
-45.6493
62
3
0
LINE
8
Undeflected
10
1237.26
20
38.4119
11
1237.05
21
38.3325
62
4
0
LINE
8
Undeflected
10
1235.12
20
44.6207
11
1235.44
21
44.679
62
5
0
LINE
8
Undeflected
10
1235.44
20
44.679
11
1235.58
21
44.7198
62
6
0
LINE
8
Undeflected
10
1235.57
20
38.5147
11
1235.61
21
38.5254
62
7
0
LINE
8
Undeflected
10
1235.75
20
38.6163
11
1235.77
21
38.6936
62
8
0
LINE
8
Undeflected
10
1235.27
20
38.3274
11
1235.28
21
38.3525
62
9
0
LINE
8
Undeflected
10
1235.3
20
38.4096
11
1235.32
21
38.4321
62
10
0
LINE
8
Undeflected
10
1235.39
20
38.4781
11
1235.51
21
38.5084
62
1
0
LINE
8
Undeflected
10
1235.27
20
37
11
1235.27
21
38.3274
62
2
0
LINE
8
Undeflected
10
1235.52
20
38.509
11
1235.59
21
38.5066
62
3
0
LINE
8
Undeflected
10
1235.59
20
38.5066
11
1235.67
21
38.5026
62
4
0
LINE
8
Undeflected
10
1235.68
20
38.5023
11
1235.68
21
38.5022
62
5
0
LINE
8
Undeflected
10
1236.97
20
38.4927
11
1237.18
21
38.5291
62
6
0
LINE
8
Undeflected
10
1236.59
20
38.4705
11
1236.65
21
38.4686
62
7
0
LINE
8
Undeflected
10
1235.55
20
38.2684
11
1235.55
21
37
62
8
0
LINE
8
Undeflected
10
1235.75
20
38.2684
11
1235.55
21
38.2684
62
9
0
LINE
8
Undeflected
10
1254.4
20
47.9085
11
1254.5
21
47.9077
62
10
0
LINE
8
Undeflected
10
1249.65
20
48.8512
11
1249.65
21
48.6288
62
1
0
LINE
8
Undeflected
10
1249.65
20
48.5597
11
1249.65
21
48.8596
62
2
0
LINE
8
Undeflected
10
1249.65
20
48.8596
11
1249.67
21
48.9377
62
3
0
LINE
8
Undeflected
10
1249.77
20
49.045
11
1249.81
21
49.056
62
4
0
LINE
8
Undeflected
10
1249.65
20
48.8597
11
1249.65
21
48.8597
62
5
0
LINE
8
Undeflected
10
1229.81
20
46.1442
11
1231.03
21
47.3649
62
6
0
LINE
8
Undeflected
10
1254.4
20
47.6495
11
1254.5
21
47.6495
62
7
0
LINE
8
Undeflected
10
1229.81
20
46.1442
11
1229.78
21
46.1151
62
8
0
LINE
8
Undeflected
10
1229.71
20
46.043
11
1229.69
21
46.0163
62
9
0
LINE
8
Undeflected
10
1254.5
20
-45.9077
11
1254.4
21
-45.9085
62
10
0
LINE
8
Undeflected
10
1259.11
20
-47.169
11
1259
21
-47.1709
62
1
0
LINE
8
Undeflected
10
1259
20
-47.1709
11
1259.34
21
-47.165
62
2
0
LINE
8
Undeflected
10
1259.34
20
-47.165
11
1259
21
-47.1709
62
3
0
LINE
8
Undeflected
10
1259
20
-47.1709
11
1259.11
21
-47.169
62
4
0
LINE
8
Undeflected
10
1259.11
20
-47.169
11
1259.46
21
-47.1628
62
5
0
LINE
8
Undeflected
10
1259.46
20
-47.1628
11
1259.79
21
-47.1572
62
6
0
LINE
8
Undeflected
10
1259.79
20
-47.1572
11
1260.05
21
-47.1526
62
7
0
LINE
8
Undeflected
10
1260.05
20
-47.1526
11
1260.23
21
-47.1496
62
8
0
LINE
8
Undeflected
10
1260.23
20
-47.1496
11
1260.3
21
-47.1482
62
9
0
LINE
8
Undeflected
10
1259.11
20
-47.169
11
1259.11
21
-46.9777
62
10
0
LINE
8
Undeflected
10
1259.11
20
-46.9777
11
1259.11
21
-46.8903
62
1
0
LINE
8
Undeflected
10
1259.11
20
-46.8691
11
1259.57
21
-46.8626
62
2
0
LINE
8
Undeflected
10
1259.57
20
-46.8626
11
1259.98
21
-46.8568
62
3
0
LINE
8
Undeflected
10
1259.98
20
-46.8568
11
1260.32
21
-46.8522
62
4
0
LINE
8
Undeflected
10
1260.32
20
-46.8522
11
1260.53
21
-46.8492
62
5
0
LINE
8
Undeflected
10
1260.53
20
-46.8492
11
1260.6
21
-46.8482
62
6
0
LINE
8
Undeflected
10
1259.11
20
-21.713
11
1259.57
21
-21.7082
62
7
0
LINE
8
Undeflected
10
1259.57
20
-21.7082
11
1259.98
21
-21.7038
62
8
0
LINE
8
Undeflected
10
1259.98
20
-21.7038
11
1260.32
21
-21.7004
62
9
0
LINE
8
Undeflected
10
1260.32
20
-21.7004
11
1260.53
21
-21.6982
62
10
0
LINE
8
Undeflected
10
1260.53
20
-21.6982
11
1260.6
21
-21.6974
62
1
0
LINE
8
Undeflected
10
1259.11
20
-21.713
11
1259.54
21
-21.5868
62
2
0
LINE
8
Undeflected
10
1259.54
20
-21.5868
11
1259.95
21
-21.4764
62
3
0
LINE
8
Undeflected
10
1259.95
20
-21.4764
11
1260.33
21
-21.4078
62
4
0
LINE
8
Undeflected
10
1260.33
20
-21.4078
11
1260.44
21
-21.4014
62
5
0
LINE
8
Undeflected
10
1260.9
20
-21.3974
11
1260.62
21
-21.5911
62
6
0
LINE
8
Undeflected
10
1260.62
20
-21.5911
11
1260.6
21
-21.6788
62
7
0
LINE
8
Undeflected
10
1260.44
20
-21.1014
11
1260.44
21
-21.381
62
8
0
LINE
8
Undeflected
10
1260.44
20
-21.381
11
1260.44
21
-21.4006
62
9
0
LINE
8
Undeflected
10
1254.6
20
47.9068
11
1254.6
21
47.6495
62
10
0
LINE
8
Undeflected
10
1257.28
20
47.3215
11
1256.69
21
47.3163
62
1
0
LINE
8
Undeflected
10
1257.28
20
47.1921
11
1257.16
21
47.1911
62
2
0
LINE
8
Undeflected
10
1254.5
20
47.9077
11
1254.5
21
47.6495
62
3
0
LINE
8
Undeflected
10
1249.85
20
48.9583
11
1249.85
21
48.7048
62
4
0
LINE
8
Undeflected
10
1249.85
20
48.5597
11
1249.65
21
48.5597
62
5
0
LINE
8
Undeflected
10
1249.65
20
48.5597
11
1249.65
21
48.8393
62
6
0
LINE
8
Undeflected
10
1249.65
20
48.8393
11
1249.65
21
48.8589
62
7
0
LINE
8
Undeflected
10
1249.85
20
49.0597
11
1249.65
21
48.8721
62
8
0
LINE
8
Undeflected
10
1249.85
20
49.0597
11
1249.65
21
48.8495
62
9
0
LINE
8
Undeflected
10
1249.65
20
48.1483
11
1249.65
21
48.0217
62
10
0
LINE
8
Undeflected
10
1249.65
20
48.0217
11
1249.65
21
47.75
62
1
0
LINE
8
Undeflected
10
1249.65
20
47.75
11
1249.65
21
47.6495
62
2
0
LINE
8
Undeflected
10
1249.65
20
47.6495
11
1249.65
21
48.5597
62
3
0
LINE
8
Undeflected
10
1249.65
20
48.8597
11
1249.65
21
48.8597
62
4
0
LINE
8
Undeflected
10
1249.65
20
48.8597
11
1249.65
21
48.7597
62
5
0
LINE
8
Undeflected
10
1249.65
20
48.7597
11
1249.65
21
48.1483
62
6
0
LINE
8
Undeflected
10
1249.85
20
47.9483
11
1249.85
21
47.6495
62
7
0
LINE
8
Undeflected
10
1254.4
20
47.6495
11
1254.4
21
47.9085
62
8
0
LINE
8
Undeflected
10
1229.72
20
45.9919
11
1229.86
21
45.8496
62
9
0
LINE
8
Undeflected
10
1232.92
20
48.9089
11
1232.78
21
49.0516
62
10
0
LINE
8
Undeflected
10
1229.72
20
45.9919
11
1232.78
21
49.052
62
1
0
LINE
8
Undeflected
10
1229.72
20
45.9919
11
1229.68
21
46.0086
62
2
0
LINE
8
Undeflected
10
1229.68
20
46.0086
11
1229.81
21
46.1441
62
3
0
LINE
8
Undeflected
10
1232.76
20
49.0907
11
1229.81
21
46.1441
62
4
0
LINE
8
Undeflected
10
1232.76
20
49.0907
11
1232.78
21
49.052
62
5
0
LINE
8
Undeflected
10
1237.47
20
38.5917
11
1237.47
21
38.5078
62
6
0
LINE
8
Undeflected
10
1257.28
20
47.1145
11
1257.17
21
47.1879
62
7
0
LINE
8
Undeflected
10
1255.47
20
47.6428
11
1257.17
21
47.1889
62
8
0
LINE
8
Undeflected
10
1255.47
20
47.6428
11
1255.42
21
47.6495
62
9
0
LINE
8
Undeflected
10
1255.42
20
47.6495
11
1249.32
21
47.6495
62
10
0
LINE
8
Undeflected
10
1249.32
20
47.6495
11
1249.12
21
47.8494
62
1
0
LINE
8
Undeflected
10
1249.12
20
47.8494
11
1249.12
21
48.9494
62
2
0
LINE
8
Undeflected
10
1248.92
20
49.1493
11
1249.12
21
48.9494
62
3
0
LINE
8
Undeflected
10
1248.92
20
49.1493
11
1232.9
21
49.1492
62
4
0
LINE
8
Undeflected
10
1232.9
20
49.1492
11
1232.76
21
49.0907
62
5
0
LINE
8
Undeflected
10
1232.92
20
49.1106
11
1232.92
21
48.9082
62
6
0
LINE
8
Undeflected
10
1232.78
20
49.052
11
1232.9
21
49.1099
62
7
0
LINE
8
Undeflected
10
1232.92
20
49.1106
11
1248.88
21
49.1106
62
8
0
LINE
8
Undeflected
10
1232.92
20
49.1106
11
1232.9
21
49.1492
62
9
0
LINE
8
Undeflected
10
1248.92
20
49.1493
11
1248.88
21
49.1106
62
10
0
LINE
8
Undeflected
10
1248.88
20
48.9099
11
1248.88
21
49.1101
62
1
0
LINE
8
Undeflected
10
1249.12
20
48.9494
11
1249.08
21
48.9107
62
2
0
LINE
8
Undeflected
10
1248.88
20
49.1106
11
1249.01
21
49.0634
62
3
0
LINE
8
Undeflected
10
1249.02
20
49.052
11
1249.08
21
48.9276
62
4
0
LINE
8
Undeflected
10
1249.08
20
48.9107
11
1248.89
21
48.9107
62
5
0
LINE
8
Undeflected
10
1249.08
20
47.8105
11
1248.88
21
47.8105
62
6
0
LINE
8
Undeflected
10
1249.08
20
48.9107
11
1249.08
21
47.8105
62
7
0
LINE
8
Undeflected
10
1249.28
20
47.4107
11
1249.28
21
47.6102
62
8
0
LINE
8
Undeflected
10
1255.38
20
47.6106
11
1255.38
21
47.4179
62
9
0
LINE
8
Undeflected
10
1249.28
20
47.6106
11
1255.38
21
47.6106
62
10
0
LINE
8
Undeflected
10
1255.38
20
47.4107
11
1255.43
21
47.6035
62
1
0
LINE
8
Undeflected
10
1257.13
20
47.1498
11
1257.08
21
46.9622
62
2
0
LINE
8
Undeflected
10
1257.13
20
47.1498
11
1255.43
21
47.6038
62
3
0
LINE
8
Undeflected
10
1255.43
20
47.6038
11
1255.47
21
47.6428
62
4
0
LINE
8
Undeflected
10
1257.17
20
47.1889
11
1257.13
21
47.1498
62
5
0
LINE
8
Undeflected
10
1229.86
20
45.8506
11
1229.66
21
45.8506
62
6
0
LINE
8
Undeflected
10
1229.66
20
45.8506
11
1229.71
21
45.9794
62
7
0
LINE
8
Undeflected
10
1229.67
20
45.1572
11
1229.86
21
45.3452
62
8
0
LINE
8
Undeflected
10
1229.66
20
45.1349
11
1229.66
21
45.8506
62
9
0
LINE
8
Undeflected
10
1229.67
20
45.1572
11
1229.66
21
45.1349
62
10
0
LINE
8
Undeflected
10
1231.62
20
44.5956
11
1231.62
21
44.6137
62
1
0
LINE
8
Undeflected
10
1231.62
20
44.6137
11
1231.36
21
44.6592
62
2
0
LINE
8
Undeflected
10
1231.36
20
44.6592
11
1231.05
21
44.6936
62
3
0
LINE
8
Undeflected
10
1231.05
20
44.6936
11
1230.77
21
44.7047
62
4
0
LINE
8
Undeflected
10
1230.77
20
44.7047
11
1229.62
21
44.7047
62
5
0
LINE
8
Undeflected
10
1229.62
20
44.7047
11
1229.62
21
44.7251
62
6
0
LINE
8
Undeflected
10
1229.62
20
44.7251
11
1229.66
21
45.1349
62
7
0
LINE
8
Undeflected
10
1236.78
20
45.1572
11
1229.67
21
45.1572
62
8
0
LINE
8
Undeflected
10
1236.78
20
45.1572
11
1235.62
21
44.7352
62
9
0
LINE
8
Undeflected
10
1235.62
20
44.7352
11
1235.34
21
44.6559
62
10
0
LINE
8
Undeflected
10
1235.34
20
44.6559
11
1235.17
21
44.6281
62
1
0
LINE
8
Undeflected
10
1235.79
20
44.6255
11
1235.75
21
44.6252
62
2
0
LINE
8
Undeflected
10
1235.74
20
44.6251
11
1235.63
21
44.733
62
3
0
LINE
8
Undeflected
10
1236.78
20
45.1572
11
1236.72
21
44.9567
62
4
0
LINE
8
Undeflected
10
1236.72
20
44.9567
11
1236.68
21
44.8919
62
5
0
LINE
8
Undeflected
10
1235.8
20
44.5714
11
1236.68
21
44.8919
62
6
0
LINE
8
Undeflected
10
1235.79
20
44.6255
11
1235.8
21
44.5714
62
7
0
LINE
8
Undeflected
10
1235.27
20
38.3274
11
1235.27
21
37
62
8
0
LINE
8
Undeflected
10
1235.52
20
38.509
11
1235.27
21
38.3274
62
9
0
LINE
8
Undeflected
10
1235.52
20
38.509
11
1235.77
21
38.7038
62
10
0
LINE
8
Undeflected
10
1235.77
20
38.7038
11
1235.8
21
44.5714
62
1
0
LINE
8
Undeflected
10
1229.52
20
44.5805
11
1235.79
21
44.6255
62
2
0
LINE
8
Undeflected
10
1236.68
20
38.6721
11
1235.77
21
38.7038
62
3
0
LINE
8
Undeflected
10
1236.54
20
38.4722
11
1236.68
21
38.6629
62
4
0
LINE
8
Undeflected
10
1236.54
20
38.4722
11
1235.68
21
38.5022
62
5
0
LINE
8
Undeflected
10
1235.68
20
38.5022
11
1235.59
21
38.5065
62
6
0
LINE
8
Undeflected
10
1235.59
20
38.5065
11
1235.52
21
38.509
62
7
0
LINE
8
Undeflected
10
1236.68
20
38.6721
11
1236.68
21
44.8919
62
8
0
LINE
8
Undeflected
10
1237.74
20
45.3452
11
1237.36
21
45.2592
62
9
0
LINE
8
Undeflected
10
1237.36
20
45.2592
11
1236.97
21
45.1833
62
10
0
LINE
8
Undeflected
10
1236.97
20
45.1833
11
1236.78
21
45.1572
62
1
0
LINE
8
Undeflected
10
1236.68
20
44.8919
11
1236.97
21
44.9805
62
2
0
LINE
8
Undeflected
10
1236.97
20
44.9805
11
1237.29
21
45.1303
62
3
0
LINE
8
Undeflected
10
1237.29
20
45.1303
11
1237.63
21
45.2945
62
4
0
LINE
8
Undeflected
10
1237.63
20
45.2945
11
1237.74
21
45.3452
62
5
0
LINE
8
Undeflected
10
1237.74
20
38.6547
11
1237.39
21
38.6564
62
6
0
LINE
8
Undeflected
10
1237.39
20
38.6564
11
1237.06
21
38.6612
62
7
0
LINE
8
Undeflected
10
1237.06
20
38.6612
11
1236.77
21
38.6689
62
8
0
LINE
8
Undeflected
10
1236.77
20
38.6689
11
1236.68
21
38.6721
62
9
0
LINE
8
Undeflected
10
1237.74
20
38.6547
11
1237.39
21
38.5721
62
10
0
LINE
8
Undeflected
10
1237.39
20
38.5721
11
1237.05
21
38.5058
62
1
0
LINE
8
Undeflected
10
1237.05
20
38.5058
11
1236.66
21
38.4683
62
2
0
LINE
8
Undeflected
10
1236.66
20
38.4683
11
1236.54
21
38.4722
62
3
0
LINE
8
Undeflected
10
1257.08
20
-44.9567
11
1257.08
21
-20.2343
62
4
0
LINE
8
Undeflected
10
1257.28
20
-44.9567
11
1257.09
21
-44.9567
62
5
0
LINE
8
Undeflected
10
1257.28
20
-20.1417
11
1257.28
21
-26.5828
62
6
0
LINE
8
Undeflected
10
1235.75
20
-35
11
1254.02
21
-35
62
7
0
LINE
8
Undeflected
10
1256.02
20
-22
11
1256.06
21
-21.6027
62
8
0
LINE
8
Undeflected
10
1256.06
20
-21.6027
11
1256.18
21
-21.2212
62
9
0
LINE
8
Undeflected
10
1256.18
20
-21.2212
11
1256.37
21
-20.8707
62
10
0
LINE
8
Undeflected
10
1256.37
20
-20.8707
11
1256.63
21
-20.5653
62
1
0
LINE
8
Undeflected
10
1256.63
20
-20.5653
11
1256.94
21
-20.3171
62
2
0
LINE
8
Undeflected
10
1257.08
20
-44.9567
11
1255.38
21
-45.4107
62
3
0
LINE
8
Undeflected
10
1255.38
20
-45.4107
11
1249.28
21
-45.4107
62
4
0
LINE
8
Undeflected
10
1249.28
20
-45.4107
11
1248.96
21
-45.5758
62
5
0
LINE
8
Undeflected
10
1248.96
20
-45.5758
11
1248.88
21
-45.8105
62
6
0
LINE
8
Undeflected
10
1248.88
20
-45.8105
11
1248.88
21
-46.9098
62
7
0
LINE
8
Undeflected
10
1248.88
20
-46.9098
11
1232.92
21
-46.9107
62
8
0
LINE
8
Undeflected
10
1232.92
20
-46.9107
11
1229.86
21
-43.8505
62
9
0
LINE
8
Undeflected
10
1229.86
20
-43.3452
11
1229.86
21
-43.8505
62
10
0
LINE
8
Undeflected
10
1237.74
20
-43.3452
11
1229.86
21
-43.3452
62
1
0
LINE
8
Undeflected
10
1237.74
20
-43.3452
11
1237.74
21
-36.6547
62
2
0
LINE
8
Undeflected
10
1237.74
20
-36.6547
11
1237.39
21
-36.4682
62
3
0
LINE
8
Undeflected
10
1237.39
20
-36.4682
11
1237.06
21
-36.3367
62
4
0
LINE
8
Undeflected
10
1237.06
20
-36.3367
11
1236.66
21
-36.2684
62
5
0
LINE
8
Undeflected
10
1236.66
20
-36.2684
11
1235.75
21
-36.2684
62
6
0
LINE
8
Undeflected
10
1235.75
20
-35
11
1235.75
21
-36.2684
62
7
0
LINE
8
Undeflected
10
1235.55
20
-36.269
11
1235.55
21
-35
62
8
0
LINE
8
Undeflected
10
1235.75
20
-36.2684
11
1235.55
21
-36.269
62
9
0
LINE
8
Undeflected
10
1237.74
20
-43.3452
11
1237.4
21
-43.1854
62
10
0
LINE
8
Undeflected
10
1237.4
20
-43.1854
11
1237.07
21
-43.0262
62
1
0
LINE
8
Undeflected
10
1237.07
20
-43.0262
11
1236.77
21
-42.9111
62
2
0
LINE
8
Undeflected
10
1236.77
20
-42.9111
11
1236.68
21
-42.8919
62
3
0
LINE
8
Undeflected
10
1236.68
20
-36.6721
11
1236.96
21
-36.6635
62
4
0
LINE
8
Undeflected
10
1236.96
20
-36.6635
11
1237.28
21
-36.6576
62
5
0
LINE
8
Undeflected
10
1237.28
20
-36.6576
11
1237.62
21
-36.6549
62
6
0
LINE
8
Undeflected
10
1237.62
20
-36.6549
11
1237.74
21
-36.6547
62
7
0
LINE
8
Undeflected
10
1236.68
20
-36.6721
11
1236.68
21
-42.8919
62
8
0
LINE
8
Undeflected
10
1236.66
20
-36.4683
11
1237.05
21
-36.5057
62
9
0
LINE
8
Undeflected
10
1237.05
20
-36.5057
11
1237.38
21
-36.572
62
10
0
LINE
8
Undeflected
10
1237.38
20
-36.572
11
1237.74
21
-36.6547
62
1
0
LINE
8
Undeflected
10
1236.68
20
-36.6721
11
1236.55
21
-36.4727
62
2
0
LINE
8
Undeflected
10
1236.54
20
-36.4722
11
1236.66
21
-36.4683
62
3
0
LINE
8
Undeflected
10
1236.68
20
-42.8919
11
1235.76
21
-42.5566
62
4
0
LINE
8
Undeflected
10
1235.76
20
-42.5566
11
1235.76
21
-36.7043
62
5
0
LINE
8
Undeflected
10
1235.76
20
-36.7043
11
1236.68
21
-36.6721
62
6
0
LINE
8
Undeflected
10
1236.68
20
-42.8919
11
1236.77
21
-43.1223
62
7
0
LINE
8
Undeflected
10
1236.77
20
-43.1223
11
1236.78
21
-43.1572
62
8
0
LINE
8
Undeflected
10
1235.62
20
-42.7352
11
1236.78
21
-43.1572
62
9
0
LINE
8
Undeflected
10
1235.62
20
-42.7352
11
1235.76
21
-42.5615
62
10
0
LINE
8
Undeflected
10
1236.78
20
-43.1572
11
1237.16
21
-43.2186
62
1
0
LINE
8
Undeflected
10
1237.16
20
-43.2186
11
1237.55
21
-43.302
62
2
0
LINE
8
Undeflected
10
1237.55
20
-43.302
11
1237.74
21
-43.3452
62
3
0
LINE
8
Undeflected
10
1229.67
20
-43.1572
11
1236.78
21
-43.1572
62
4
0
LINE
8
Undeflected
10
1229.67
20
-43.1572
11
1229.86
21
-43.3452
62
5
0
LINE
8
Undeflected
10
1229.66
20
-43.1349
11
1229.67
21
-43.1572
62
6
0
LINE
8
Undeflected
10
1229.66
20
-43.8504
11
1229.66
21
-43.1349
62
7
0
LINE
8
Undeflected
10
1229.86
20
-43.8505
11
1229.66
21
-43.8504
62
8
0
LINE
8
Undeflected
10
1229.72
20
-43.9918
11
1229.85
21
-43.8556
62
9
0
LINE
8
Undeflected
10
1232.78
20
-47.052
11
1229.72
21
-43.9918
62
10
0
LINE
8
Undeflected
10
1232.92
20
-46.9107
11
1232.78
21
-47.0518
62
1
0
LINE
8
Undeflected
10
1232.92
20
-47.1106
11
1232.92
21
-46.9179
62
2
0
LINE
8
Undeflected
10
1248.88
20
-47.1106
11
1232.92
21
-47.1106
62
3
0
LINE
8
Undeflected
10
1248.88
20
-47.1106
11
1248.88
21
-46.9179
62
4
0
LINE
8
Undeflected
10
1248.88
20
-47.1106
11
1248.92
21
-47.1491
62
5
0
LINE
8
Undeflected
10
1232.9
20
-47.1491
11
1248.92
21
-47.1491
62
6
0
LINE
8
Undeflected
10
1232.9
20
-47.1491
11
1232.92
21
-47.1106
62
7
0
LINE
8
Undeflected
10
1248.88
20
-46.9107
11
1249.08
21
-46.9107
62
8
0
LINE
8
Undeflected
10
1249.02
20
-47.052
11
1248.9
21
-47.1098
62
9
0
LINE
8
Undeflected
10
1249.08
20
-46.9107
11
1249.03
21
-47.0395
62
10
0
LINE
8
Undeflected
10
1249.12
20
-46.9492
11
1248.92
21
-47.1491
62
1
0
LINE
8
Undeflected
10
1249.08
20
-46.9107
11
1249.12
21
-46.9492
62
2
0
LINE
8
Undeflected
10
1249.08
20
-45.8105
11
1249.08
21
-46.9107
62
3
0
LINE
8
Undeflected
10
1248.88
20
-45.8105
11
1249.08
21
-45.8105
62
4
0
LINE
8
Undeflected
10
1249.28
20
-45.6106
11
1249.28
21
-45.4179
62
5
0
LINE
8
Undeflected
10
1255.38
20
-45.6106
11
1249.28
21
-45.6106
62
6
0
LINE
8
Undeflected
10
1255.38
20
-45.4107
11
1255.38
21
-45.6102
62
7
0
LINE
8
Undeflected
10
1255.43
20
-45.6038
11
1255.38
21
-45.4161
62
8
0
LINE
8
Undeflected
10
1255.43
20
-45.6038
11
1257.13
21
-45.1498
62
9
0
LINE
8
Undeflected
10
1257.08
20
-44.9567
11
1257.13
21
-45.1495
62
10
0
LINE
8
Undeflected
10
1237.41
20
-36.4766
11
1237.41
21
-36.5768
62
1
0
LINE
8
Undeflected
10
1229.82
20
-44.1492
11
1232.76
21
-47.0906
62
2
0
LINE
8
Undeflected
10
1232.76
20
-47.0906
11
1232.9
21
-47.1491
62
3
0
LINE
8
Undeflected
10
1249.12
20
-46.9492
11
1249.12
21
-45.8492
62
4
0
LINE
8
Undeflected
10
1249.12
20
-45.8492
11
1249.32
21
-45.6493
62
5
0
LINE
8
Undeflected
10
1249.32
20
-45.6493
11
1255.42
21
-45.6493
62
6
0
LINE
8
Undeflected
10
1255.42
20
-45.6493
11
1255.47
21
-45.6426
62
7
0
LINE
8
Undeflected
10
1257.17
20
-45.1887
11
1255.47
21
-45.6426
62
8
0
LINE
8
Undeflected
10
1257.17
20
-45.1887
11
1257.28
21
-45.1171
62
9
0
LINE
8
Undeflected
10
1277.87
20
12.9234
11
1277.26
21
12.9023
62
10
0
LINE
8
Undeflected
10
1277.26
20
12.9023
11
1277.26
21
14.2692
62
1
0
LINE
8
Undeflected
10
1277.87
20
14.2903
11
1277.87
21
12.9234
62
2
0
LINE
8
Undeflected
10
1277.87
20
12.9234
11
1278.01
21
12.724
62
3
0
LINE
8
Undeflected
10
1277.4
20
12.7024
11
1277.26
21
12.8931
62
4
0
LINE
8
Undeflected
10
1277.4
20
12.7024
11
1278.01
21
12.7235
62
5
0
LINE
8
Undeflected
10
1277.4
20
12.7024
11
1277.4
21
12.697
62
6
0
LINE
8
Undeflected
10
1278.01
20
12.7235
11
1278.12
21
12.7235
62
7
0
LINE
8
Undeflected
10
1278.12
20
12.7235
11
1278.1
21
12.6969
62
8
0
LINE
8
Undeflected
10
1278.1
20
12.6969
11
1277.4
21
12.697
62
9
0
LINE
8
Undeflected
10
1277.2
20
12.9023
11
1277.39
21
12.7029
62
10
0
LINE
8
Undeflected
10
1277.2
20
12.9023
11
1277.2
21
12.8964
62
1
0
LINE
8
Undeflected
10
1277.4
20
12.697
11
1277.2
21
12.8964
62
2
0
LINE
8
Undeflected
10
1277.2
20
14.2
11
1277.2
21
14.2265
62
3
0
LINE
8
Undeflected
10
1277.2
20
14.2265
11
1277.2
21
14.2489
62
4
0
LINE
8
Undeflected
10
1277.2
20
14.2489
11
1277.2
21
14.2527
62
5
0
LINE
8
Undeflected
10
1277.2
20
14.2527
11
1277.2
21
12.9023
62
6
0
LINE
8
Undeflected
10
1277.2
20
12.8964
11
1277.2
21
12.95
62
7
0
LINE
8
Undeflected
10
1277.2
20
12.95
11
1277.2
21
13
62
8
0
LINE
8
Undeflected
10
1277.2
20
13
11
1277.2
21
14.2
62
9
0
LINE
8
Undeflected
10
1275.48
20
14.9738
11
1275.48
21
14.7743
62
10
0
LINE
8
Undeflected
10
1274.98
20
14.2743
11
1274.78
21
14.2743
62
1
0
LINE
8
Undeflected
10
1274.78
20
9.72567
11
1274.98
21
9.72567
62
2
0
LINE
8
Undeflected
10
1275.48
20
9.22608
11
1275.48
21
9.03338
62
3
0
LINE
8
Undeflected
10
1277.05
20
9.22632
11
1277.05
21
9.03361
62
4
0
LINE
8
Undeflected
10
1277.87
20
9.70965
11
1277.68
21
9.39273
62
5
0
LINE
8
Undeflected
10
1277.68
20
9.39273
11
1277.35
21
9.2584
62
6
0
LINE
8
Undeflected
10
1277.35
20
9.2584
11
1277.05
21
9.22632
62
7
0
LINE
8
Undeflected
10
1277.26
20
9.73077
11
1277.17
21
9.40876
62
8
0
LINE
8
Undeflected
10
1277.17
20
9.40876
11
1276.96
21
9.23819
62
9
0
LINE
8
Undeflected
10
1276.96
20
9.23819
11
1276.93
21
9.23217
62
10
0
LINE
8
Undeflected
10
1277.87
20
9.70965
11
1277.26
21
9.73077
62
1
0
LINE
8
Undeflected
10
1277.2
20
9.74728
11
1277.25
21
9.73212
62
2
0
LINE
8
Undeflected
10
1276.7
20
9.24758
11
1277.02
21
9.36548
62
3
0
LINE
8
Undeflected
10
1277.02
20
9.36548
11
1277.2
21
9.66295
62
4
0
LINE
8
Undeflected
10
1277.2
20
9.66295
11
1277.2
21
9.71254
62
5
0
LINE
8
Undeflected
10
1277.26
20
11.0977
11
1277.87
21
11.0766
62
6
0
LINE
8
Undeflected
10
1277.87
20
11.0766
11
1277.87
21
9.70965
62
7
0
LINE
8
Undeflected
10
1277.26
20
9.73077
11
1277.26
21
11.0977
62
8
0
LINE
8
Undeflected
10
1277.26
20
11.0977
11
1277.4
21
11.2971
62
9
0
LINE
8
Undeflected
10
1278.01
20
11.2765
11
1277.87
21
11.0858
62
10
0
LINE
8
Undeflected
10
1278.01
20
11.2765
11
1277.4
21
11.2976
62
1
0
LINE
8
Undeflected
10
1278.12
20
11.2765
11
1278.01
21
11.2765
62
2
0
LINE
8
Undeflected
10
1277.4
20
11.303
11
1277.4
21
11.2976
62
3
0
LINE
8
Undeflected
10
1277.4
20
11.303
11
1278.1
21
11.3031
62
4
0
LINE
8
Undeflected
10
1278.1
20
11.3031
11
1278.12
21
11.2765
62
5
0
LINE
8
Undeflected
10
1277.2
20
11.1036
11
1277.2
21
11.0977
62
6
0
LINE
8
Undeflected
10
1277.4
20
11.2976
11
1277.2
21
11.1116
62
7
0
LINE
8
Undeflected
10
1277.2
20
11.1036
11
1277.4
21
11.303
62
8
0
LINE
8
Undeflected
10
1277.2
20
11
11
1277.2
21
11.05
62
9
0
LINE
8
Undeflected
10
1277.2
20
11.05
11
1277.2
21
11.1036
62
10
0
LINE
8
Undeflected
10
1277.2
20
11.0977
11
1277.2
21
9.74728
62
1
0
LINE
8
Undeflected
10
1277.2
20
9.74728
11
1277.2
21
9.75109
62
2
0
LINE
8
Undeflected
10
1277.2
20
9.75109
11
1277.2
21
9.8
62
3
0
LINE
8
Undeflected
10
1277.2
20
9.8
11
1277.2
21
11
62
4
0
LINE
8
Undeflected
10
1262.92
20
1.92395
11
1262.73
21
1.92395
62
5
0
LINE
8
Undeflected
10
1262.92
20
1.92395
11
1262.92
21
3.87605
62
6
0
LINE
8
Undeflected
10
1262.73
20
3.87605
11
1262.92
21
3.87605
62
7
0
LINE
8
Undeflected
10
1263.22
20
4.17579
11
1263.22
21
4.36849
62
8
0
LINE
8
Undeflected
10
1263.22
20
4.17579
11
1270.67
21
4.17466
62
9
0
LINE
8
Undeflected
10
1270.67
20
4.17466
11
1270.68
21
4.36736
62
10
0
LINE
8
Undeflected
10
1270.97
20
3.87476
11
1270.77
21
4.16003
62
1
0
LINE
8
Undeflected
10
1270.77
20
4.16003
11
1270.72
21
4.17099
62
2
0
LINE
8
Undeflected
10
1271.18
20
3.87476
11
1270.98
21
3.87476
62
3
0
LINE
8
Undeflected
10
1270.97
20
3.87476
11
1270.97
21
1.92524
62
4
0
LINE
8
Undeflected
10
1270.97
20
1.92524
11
1271.17
21
1.92524
62
5
0
LINE
8
Undeflected
10
1270.67
20
1.62534
11
1270.96
21
1.83253
62
6
0
LINE
8
Undeflected
10
1270.96
20
1.83253
11
1270.97
21
1.8783
62
7
0
LINE
8
Undeflected
10
1270.68
20
1.42547
11
1270.67
21
1.62497
62
8
0
LINE
8
Undeflected
10
1270.67
20
1.62534
11
1263.22
21
1.62421
62
9
0
LINE
8
Undeflected
10
1263.22
20
1.42433
11
1263.22
21
1.62383
62
10
0
LINE
8
Undeflected
10
1263.22
20
1.62421
11
1263.25
21
1.65088
62
1
0
LINE
8
Undeflected
10
1263.25
20
1.65088
11
1270.65
21
1.652
62
2
0
LINE
8
Undeflected
10
1270.65
20
1.652
11
1270.67
21
1.62534
62
3
0
LINE
8
Undeflected
10
1262.92
20
3.87605
11
1262.95
21
3.84935
62
4
0
LINE
8
Undeflected
10
1262.95
20
3.84935
11
1262.95
21
1.95065
62
5
0
LINE
8
Undeflected
10
1262.95
20
1.95065
11
1262.92
21
1.92395
62
6
0
LINE
8
Undeflected
10
1263.25
20
4.14912
11
1263.22
21
4.17579
62
7
0
LINE
8
Undeflected
10
1270.67
20
4.17466
11
1270.65
21
4.148
62
8
0
LINE
8
Undeflected
10
1270.65
20
4.148
11
1263.25
21
4.14912
62
9
0
LINE
8
Undeflected
10
1270.97
20
1.92524
11
1270.95
21
1.95187
62
10
0
LINE
8
Undeflected
10
1270.95
20
1.95187
11
1270.95
21
3.84813
62
1
0
LINE
8
Undeflected
10
1270.95
20
3.84813
11
1270.97
21
3.87476
62
2
0
LINE
8
Undeflected
10
1230.77
20
-42.7047
11
1231.11
21
-42.6886
62
3
0
LINE
8
Undeflected
10
1231.11
20
-42.6886
11
1231.36
21
-42.6592
62
4
0
LINE
8
Undeflected
10
1231.36
20
-42.6592
11
1231.62
21
-42.6137
62
5
0
LINE
8
Undeflected
10
1231.62
20
-42.6137
11
1231.62
21
-42.5955
62
6
0
LINE
8
Undeflected
10
1231.62
20
-42.5955
11
1234.7
21
-42.5955
62
7
0
LINE
8
Undeflected
10
1234.7
20
-42.5955
11
1235.1
21
-42.6184
62
8
0
LINE
8
Undeflected
10
1235.1
20
-42.6184
11
1235.47
21
-42.6858
62
9
0
LINE
8
Undeflected
10
1235.47
20
-42.6858
11
1235.62
21
-42.7352
62
10
0
LINE
8
Undeflected
10
1229.66
20
-43.1349
11
1229.62
21
-42.7265
62
1
0
LINE
8
Undeflected
10
1229.62
20
-42.7265
11
1229.62
21
-42.7047
62
2
0
LINE
8
Undeflected
10
1229.62
20
-42.7047
11
1230.77
21
-42.7047
62
3
0
LINE
8
Undeflected
10
1235.59
20
-36.5065
11
1235.68
21
-36.5022
62
4
0
LINE
8
Undeflected
10
1235.68
20
-36.5022
11
1236.54
21
-36.4722
62
5
0
LINE
8
Undeflected
10
1235.76
20
-36.7043
11
1235.52
21
-36.5091
62
6
0
LINE
8
Undeflected
10
1235.52
20
-36.5091
11
1235.59
21
-36.5065
62
7
0
LINE
8
Undeflected
10
1232.78
20
-47.052
11
1232.76
21
-47.0906
62
8
0
LINE
8
Undeflected
10
1229.82
20
-44.1492
11
1229.8
21
-44.1287
62
9
0
LINE
8
Undeflected
10
1229.8
20
-44.1287
11
1229.68
21
-44.0083
62
10
0
LINE
8
Undeflected
10
1229.68
20
-44.0083
11
1229.72
21
-43.9918
62
1
0
LINE
8
Undeflected
10
1257.13
20
-45.1498
11
1257.17
21
-45.1887
62
2
0
LINE
8
Undeflected
10
1255.47
20
-45.6426
11
1255.43
21
-45.6038
62
3
0
LINE
8
Undeflected
10
1280.1
20
-12.5603
11
1280.12
21
-12.4183
62
4
0
LINE
8
Undeflected
10
1280.13
20
-12.4031
11
1280.29
21
-12.1699
62
5
0
LINE
8
Undeflected
10
1280.1
20
-11.7384
11
1280.1
21
-11.7839
62
6
0
LINE
8
Undeflected
10
1280.1
20
-12.201
11
1280.1
21
-12.5141
62
7
0
LINE
8
Undeflected
10
1280.1
20
-12.5141
11
1280.1
21
-12.5513
62
8
0
LINE
8
Undeflected
10
1280.1
20
-12.5612
11
1280.12
21
-12.6865
62
9
0
LINE
8
Undeflected
10
1281.98
20
-10.835
11
1282.05
21
-10.829
62
10
0
LINE
8
Undeflected
10
1282.07
20
-11.1278
11
1282
21
-11.1339
62
1
0
LINE
8
Undeflected
10
1281.82
20
-11.1497
11
1282.05
21
-11.1293
62
2
0
LINE
8
Undeflected
10
1282.3
20
-11.1075
11
1282.16
21
-11.1198
62
3
0
LINE
8
Undeflected
10
1282.16
20
-11.1198
11
1281.82
21
-11.1497
62
4
0
LINE
8
Undeflected
10
1280.39
20
-11.2747
11
1280.1
21
-11.3
62
5
0
LINE
8
Undeflected
10
1280.1
20
-11.3
11
1280.39
21
-11.2747
62
6
0
LINE
8
Undeflected
10
1282
20
-11.1339
11
1282.07
21
-11.1278
62
7
0
LINE
8
Undeflected
10
1282.07
20
-11.1278
11
1282.43
21
-11.0963
62
8
0
LINE
8
Undeflected
10
1282.43
20
-11.0963
11
1282.75
21
-11.0681
62
9
0
LINE
8
Undeflected
10
1282.75
20
-11.0681
11
1283.01
21
-11.0457
62
10
0
LINE
8
Undeflected
10
1283.01
20
-11.0457
11
1283.17
21
-11.0314
62
1
0
LINE
8
Undeflected
10
1283.17
20
-11.0314
11
1283.23
21
-11.0265
62
2
0
LINE
8
Undeflected
10
1282
20
-11.1339
11
1281.99
21
-10.9424
62
3
0
LINE
8
Undeflected
10
1281.99
20
-10.9424
11
1281.99
21
-10.8552
62
4
0
LINE
8
Undeflected
10
1281.51
20
-11.3109
11
1281.65
21
-11.2313
62
5
0
LINE
8
Undeflected
10
1281.68
20
-11.2166
11
1281.98
21
-11.1356
62
6
0
LINE
8
Undeflected
10
1283.5
20
-9.87237
11
1283.5
21
-10.7276
62
7
0
LINE
8
Undeflected
10
1283.5
20
-10.7276
11
1283.31
21
-11.0072
62
8
0
LINE
8
Undeflected
10
1283.31
20
-11.0072
11
1283.25
21
-11.0233
62
9
0
LINE
8
Undeflected
10
1282.07
20
-11.1278
11
1282.06
21
-10.9364
62
10
0
LINE
8
Undeflected
10
1282.06
20
-10.9364
11
1282.05
21
-10.8492
62
1
0
LINE
8
Undeflected
10
1282.05
20
-10.829
11
1282.5
21
-10.7974
62
2
0
LINE
8
Undeflected
10
1282.5
20
-10.7974
11
1282.91
21
-10.7691
62
3
0
LINE
8
Undeflected
10
1282.91
20
-10.7691
11
1283.23
21
-10.7468
62
4
0
LINE
8
Undeflected
10
1283.23
20
-10.7468
11
1283.43
21
-10.7325
62
5
0
LINE
8
Undeflected
10
1283.43
20
-10.7325
11
1283.5
21
-10.7276
62
6
0
LINE
8
Undeflected
10
1282.05
20
-9.77104
11
1282.5
21
-9.80263
62
7
0
LINE
8
Undeflected
10
1282.5
20
-9.80263
11
1282.91
21
-9.8309
62
8
0
LINE
8
Undeflected
10
1282.91
20
-9.8309
11
1283.23
21
-9.85319
62
9
0
LINE
8
Undeflected
10
1283.23
20
-9.85319
11
1283.43
21
-9.86745
62
10
0
LINE
8
Undeflected
10
1283.43
20
-9.86745
11
1283.5
21
-9.87237
62
1
0
LINE
8
Undeflected
10
1282.05
20
-10.829
11
1282.05
21
-9.77104
62
2
0
LINE
8
Undeflected
10
1282.05
20
-10.829
11
1281.98
21
-10.835
62
3
0
LINE
8
Undeflected
10
1281.35
20
-11.0652
11
1281.65
21
-10.9085
62
4
0
LINE
8
Undeflected
10
1281.65
20
-10.9085
11
1281.98
21
-10.835
62
5
0
LINE
8
Undeflected
10
1281.35
20
-11.0652
11
1280.39
21
-11.7384
62
6
0
LINE
8
Undeflected
10
1280.39
20
-11.7384
11
1280.39
21
-9.62556
62
7
0
LINE
8
Undeflected
10
1280.39
20
-9.62556
11
1282.05
21
-9.77104
62
8
0
LINE
8
Undeflected
10
1281.51
20
-11.3109
11
1281.41
21
-11.1496
62
9
0
LINE
8
Undeflected
10
1281.41
20
-11.1496
11
1281.36
21
-11.0776
62
10
0
LINE
8
Undeflected
10
1281.51
20
-11.3109
11
1281.84
21
-11.1598
62
1
0
LINE
8
Undeflected
10
1281.84
20
-11.1598
11
1282
21
-11.1339
62
2
0
LINE
8
Undeflected
10
1281.98
20
-10.835
11
1282
21
-11.1136
62
3
0
LINE
8
Undeflected
10
1282
20
-11.1136
11
1282
21
-11.1331
62
4
0
LINE
8
Undeflected
10
1282
20
-11.1339
11
1281.84
21
-11.1598
62
5
0
LINE
8
Undeflected
10
1281.81
20
-11.1687
11
1281.71
21
-11.2027
62
6
0
LINE
8
Undeflected
10
1281.65
20
-11.229
11
1281.52
21
-11.3079
62
7
0
LINE
8
Undeflected
10
1280.31
20
-12.1507
11
1280.12
21
-12.4318
62
8
0
LINE
8
Undeflected
10
1280.12
20
-12.4318
11
1280.1
21
-12.5303
62
9
0
LINE
8
Undeflected
10
1280.31
20
-12.1507
11
1280.21
21
-12.2491
62
10
0
LINE
8
Undeflected
10
1280.2
20
-12.2617
11
1280.1
21
-12.5283
62
1
0
LINE
8
Undeflected
10
1280.1
20
-11.7384
11
1280.3
21
-11.7384
62
2
0
LINE
8
Undeflected
10
1280.3
20
-11.7384
11
1280.39
21
-11.7384
62
3
0
LINE
8
Undeflected
10
1280.31
20
-12.1507
11
1280.34
21
-11.9379
62
4
0
LINE
8
Undeflected
10
1280.34
20
-11.9379
11
1280.39
21
-11.7384
62
5
0
LINE
8
Undeflected
10
1280.1
20
-11.7384
11
1280.1
21
-12.1254
62
6
0
LINE
8
Undeflected
10
1280.1
20
-12.1254
11
1280.1
21
-12.4838
62
7
0
LINE
8
Undeflected
10
1280.1
20
-12.4838
11
1280.12
21
-12.6832
62
8
0
LINE
8
Undeflected
10
1280.12
20
-12.6832
11
1280.18
21
-12.8326
62
9
0
LINE
8
Undeflected
10
1280.41
20
-9.3267
11
1280.1
21
-9.3
62
10
0
LINE
8
Undeflected
10
1280.12
20
-9.3018
11
1280.4
21
-9.32597
62
1
0
LINE
8
Undeflected
10
1280.41
20
-9.3267
11
1282.07
21
-9.47218
62
2
0
LINE
8
Undeflected
10
1283.23
20
-9.5735
11
1283.17
21
-9.56857
62
3
0
LINE
8
Undeflected
10
1283.17
20
-9.56857
11
1283.01
21
-9.55426
62
4
0
LINE
8
Undeflected
10
1283.01
20
-9.55426
11
1282.75
21
-9.53193
62
5
0
LINE
8
Undeflected
10
1282.75
20
-9.53193
11
1282.43
21
-9.50369
62
6
0
LINE
8
Undeflected
10
1282.43
20
-9.50369
11
1282.07
21
-9.47218
62
7
0
LINE
8
Undeflected
10
1282.07
20
-9.47218
11
1280.41
21
-9.3267
62
8
0
LINE
8
Undeflected
10
1280.41
20
-9.3267
11
1280.1
21
-9.3
62
9
0
LINE
8
Undeflected
10
1280.1
20
-9.3
11
1280.41
21
-9.3267
62
10
0
LINE
8
Undeflected
10
1281.82
20
-9.45026
11
1282.05
21
-9.47065
62
1
0
LINE
8
Undeflected
10
1283.23
20
-9.5735
11
1283.49
21
-9.78844
62
2
0
LINE
8
Undeflected
10
1283.49
20
-9.78844
11
1283.5
21
-9.84733
62
3
0
LINE
8
Undeflected
10
1282.05
20
-9.77104
11
1282.07
21
-9.49249
62
4
0
LINE
8
Undeflected
10
1282.07
20
-9.49249
11
1282.07
21
-9.47293
62
5
0
LINE
8
Undeflected
10
1280.39
20
-9.62556
11
1280.41
21
-9.34154
62
6
0
LINE
8
Undeflected
10
1280.41
20
-9.34154
11
1280.41
21
-9.3267
62
7
0
LINE
8
Undeflected
10
1280.31
20
-12.1507
11
1281.51
21
-11.3109
62
8
0
LINE
8
Undeflected
10
1280.1
20
10.2821
11
1280.39
21
10.2922
62
9
0
LINE
8
Undeflected
10
1280.76
20
12.7932
11
1281.11
21
12.727
62
10
0
LINE
8
Undeflected
10
1281.11
20
12.727
11
1281.25
21
12.6774
62
1
0
LINE
8
Undeflected
10
1280.37
20
12.8267
11
1280.11
21
13.0289
62
2
0
LINE
8
Undeflected
10
1280.11
20
13.0289
11
1280.1
21
13.1255
62
3
0
LINE
8
Undeflected
10
1280.76
20
12.7931
11
1280.37
21
12.8267
62
4
0
LINE
8
Undeflected
10
1280.1
20
13.1255
11
1280.29
21
12.8474
62
5
0
LINE
8
Undeflected
10
1280.29
20
12.8474
11
1280.33
21
12.834
62
6
0
LINE
8
Undeflected
10
1280.37
20
12.8267
11
1280.76
21
12.7932
62
7
0
LINE
8
Undeflected
10
1280.76
20
12.7932
11
1281.11
21
12.7267
62
8
0
LINE
8
Undeflected
10
1281.11
20
12.7267
11
1281.25
21
12.6768
62
9
0
LINE
8
Undeflected
10
1280.39
20
10.2921
11
1280.1
21
10.282
62
10
0
LINE
8
Undeflected
10
1280.39
20
12.0247
11
1280.71
21
11.9962
62
1
0
LINE
8
Undeflected
10
1280.72
20
11.9962
11
1280.74
21
12.3065
62
2
0
LINE
8
Undeflected
10
1280.74
20
12.3065
11
1280.76
21
12.5679
62
3
0
LINE
8
Undeflected
10
1280.76
20
12.5679
11
1280.76
21
12.739
62
4
0
LINE
8
Undeflected
10
1280.76
20
12.739
11
1280.76
21
12.7912
62
5
0
LINE
8
Undeflected
10
1280.39
20
12.0247
11
1280.38
21
12.3903
62
6
0
LINE
8
Undeflected
10
1280.38
20
12.3903
11
1280.37
21
12.6746
62
7
0
LINE
8
Undeflected
10
1280.37
20
12.6746
11
1280.37
21
12.817
62
8
0
LINE
8
Undeflected
10
1280.37
20
12.817
11
1280.37
21
12.8267
62
9
0
LINE
8
Undeflected
10
1280.39
20
9.99107
11
1280.39
21
12.0247
62
10
0
LINE
8
Undeflected
10
1280.71
20
11.9961
11
1281.1
21
11.8838
62
1
0
LINE
8
Undeflected
10
1281.1
20
11.8838
11
1281.4
21
11.632
62
2
0
LINE
8
Undeflected
10
1281.4
20
11.632
11
1281.59
21
11.2804
62
3
0
LINE
8
Undeflected
10
1281.59
20
11.2804
11
1281.62
21
10.8845
62
4
0
LINE
8
Undeflected
10
1281.62
20
10.8845
11
1281.5
21
10.5068
62
5
0
LINE
8
Undeflected
10
1281.5
20
10.5068
11
1281.24
21
10.207
62
6
0
LINE
8
Undeflected
10
1281.24
20
10.207
11
1280.88
21
10.0324
62
7
0
LINE
8
Undeflected
10
1280.88
20
10.0324
11
1280.68
21
10.0016
62
8
0
LINE
8
Undeflected
10
1280.66
20
10.0007
11
1280.39
21
9.99107
62
9
0
LINE
8
Undeflected
10
1280.66
20
9.2011
11
1280.67
21
9.26459
62
10
0
LINE
8
Undeflected
10
1280.67
20
9.26459
11
1280.67
21
9.44428
62
1
0
LINE
8
Undeflected
10
1280.67
20
9.44428
11
1280.67
21
9.71181
62
2
0
LINE
8
Undeflected
10
1280.67
20
9.71181
11
1280.66
21
9.94502
62
3
0
LINE
8
Undeflected
10
1280.66
20
9.20112
11
1281.19
21
9.30118
62
4
0
LINE
8
Undeflected
10
1281.19
20
9.30118
11
1281.67
21
9.55496
62
5
0
LINE
8
Undeflected
10
1281.67
20
9.55496
11
1282.05
21
9.93947
62
6
0
LINE
8
Undeflected
10
1282.05
20
9.93947
11
1282.3
21
10.4199
62
7
0
LINE
8
Undeflected
10
1282.3
20
10.4199
11
1282.4
21
10.9529
62
8
0
LINE
8
Undeflected
10
1282.4
20
10.9529
11
1282.33
21
11.4901
62
9
0
LINE
8
Undeflected
10
1282.33
20
11.4901
11
1282.11
21
11.983
62
10
0
LINE
8
Undeflected
10
1282.11
20
11.983
11
1281.75
21
12.3869
62
1
0
LINE
8
Undeflected
10
1281.75
20
12.3869
11
1281.28
21
12.6654
62
2
0
LINE
8
Undeflected
10
1281.28
20
12.6654
11
1280.76
21
12.7931
62
3
0
LINE
8
Undeflected
10
1280.66
20
9.2011
11
1280.66
21
9.20112
62
4
0
LINE
8
Undeflected
10
1282.11
20
11.9789
11
1282.3
21
11.5905
62
5
0
LINE
8
Undeflected
10
1282.4
20
10.9464
11
1282.33
21
10.519
62
6
0
LINE
8
Undeflected
10
1282.05
20
9.9361
11
1281.76
21
9.62062
62
7
0
LINE
8
Undeflected
10
1281.67
20
9.55196
11
1281.29
21
9.3389
62
8
0
LINE
8
Undeflected
10
1281.63
20
12.4796
11
1281.69
21
12.434
62
9
0
LINE
8
Undeflected
10
1281.74
20
12.3925
11
1281.76
21
12.379
62
10
0
LINE
8
Undeflected
10
1281.44
20
12.5924
11
1281.34
21
12.6415
62
1
0
LINE
8
Undeflected
10
1280.34
20
10.0903
11
1280.37
21
9.76712
62
2
0
LINE
8
Undeflected
10
1280.37
20
9.76712
11
1280.37
21
9.39052
62
3
0
LINE
8
Undeflected
10
1280.37
20
9.39052
11
1280.67
21
9.40098
62
4
0
LINE
8
Undeflected
10
1280.39
20
10.0921
11
1280.34
21
10.0903
62
5
0
LINE
8
Undeflected
10
1280.67
20
9.40098
11
1280.67
21
9.38102
62
6
0
LINE
8
Undeflected
10
1281.21
20
9.30558
11
1281.59
21
9.49908
62
7
0
LINE
8
Undeflected
10
1281.69
20
9.5642
11
1282
21
9.86452
62
8
0
LINE
8
Undeflected
10
1282.06
20
9.94862
11
1282.27
21
10.3278
62
9
0
LINE
8
Undeflected
10
1282.31
20
10.4284
11
1282.39
21
10.8526
62
10
0
LINE
8
Undeflected
10
1282.39
20
10.8526
11
1282.38
21
11.2854
62
1
0
LINE
8
Undeflected
10
1282.33
20
11.4986
11
1282.16
21
11.8972
62
2
0
LINE
8
Undeflected
10
1282.1
20
11.9959
11
1281.82
21
12.3248
62
3
0
LINE
8
Undeflected
10
1281.41
20
12.6055
11
1281.44
21
12.5926
62
4
0
LINE
8
Undeflected
10
1281.63
20
12.4796
11
1281.7
21
12.4212
62
5
0
LINE
8
Undeflected
10
1281.75
20
12.3871
11
1281.76
21
12.3793
62
6
0
LINE
8
Undeflected
10
1280.66
20
9.20112
11
1280.66
21
9.2011
62
7
0
LINE
8
Undeflected
10
1282.08
20
9.97439
11
1281.71
21
9.58092
62
8
0
LINE
8
Undeflected
10
1280.39
20
10.2921
11
1280.39
21
10.0921
62
9
0
LINE
8
Undeflected
10
1280.37
20
9.39052
11
1280.37
21
9.76712
62
10
0
LINE
8
Undeflected
10
1280.67
20
9.40097
11
1280.37
21
9.39052
62
1
0
LINE
8
Undeflected
10
1229.81
20
44.5826
11
1229.82
21
44.644
62
2
0
LINE
8
Undeflected
10
1229.82
20
44.6509
11
1229.82
21
44.7047
62
3
0
LINE
8
Undeflected
10
1249.12
20
48.8198
11
1249.65
21
47.9006
62
4
0
LINE
8
Undeflected
10
1231.58
20
44.6219
11
1231.54
21
44.6046
62
5
0
LINE
8
Undeflected
10
1249.65
20
48.2998
11
1249.22
21
49.05
62
6
0
LINE
8
Undeflected
10
1249.12
20
48.992
11
1249.22
21
49.0499
62
7
0
LINE
8
Undeflected
10
1249.04
20
49.15
11
1249.04
21
49.1151
62
8
0
LINE
8
Undeflected
10
1249.04
20
49.15
11
1232.9
21
49.15
62
9
0
LINE
8
Undeflected
10
1249.04
20
49.15
11
1232.9
21
49.15
62
10
0
LINE
8
Undeflected
10
1232.76
20
49.0914
11
1231.04
21
47.365
62
1
0
LINE
8
Undeflected
10
1229.81
20
46.1441
11
1229.75
21
46.0753
62
2
0
LINE
8
Undeflected
10
1229.71
20
45.9805
11
1229.68
21
46.0072
62
3
0
LINE
8
Undeflected
10
1229.82
20
44.6509
11
1229.82
21
44.5894
62
4
0
LINE
8
Undeflected
10
1229.81
20
44.5826
11
1229.82
21
44.644
62
5
0
LINE
8
Undeflected
10
1249.22
20
49.05
11
1249.65
21
48.2998
62
6
0
LINE
8
Undeflected
10
1229.75
20
46.0753
11
1229.81
21
46.1441
62
7
0
LINE
8
Undeflected
10
1231.04
20
47.365
11
1232.76
21
49.0914
62
8
0
LINE
8
Undeflected
10
1229.49
20
45.8475
11
1229.66
21
45.8446
62
9
0
LINE
8
Undeflected
10
1229.66
20
45.8446
11
1229.54
21
45.8466
62
10
0
LINE
8
Undeflected
10
1229.49
20
45.8475
11
1229.61
21
45.8455
62
1
0
LINE
8
Undeflected
10
1229.66
20
45.8446
11
1229.49
21
45.8475
62
2
0
LINE
8
Undeflected
10
1229.32
20
45.95
11
1229.47
21
45.95
62
3
0
LINE
8
Undeflected
10
1229.47
20
45.95
11
1229.65
21
45.95
62
4
0
LINE
8
Undeflected
10
1229.69
20
45.95
11
1229.32
21
45.95
62
5
0
LINE
8
Undeflected
10
1223.36
20
45.95
11
1222.99
21
45.95
62
6
0
LINE
8
Undeflected
10
1222.99
20
45.95
11
1222.79
21
45.95
62
7
0
LINE
8
Undeflected
10
1220.7
20
45.95
11
1220.33
21
45.95
62
8
0
LINE
8
Undeflected
10
1220.33
20
45.95
11
1220.14
21
45.95
62
9
0
LINE
8
Undeflected
10
1220.14
20
45.95
11
1220.33
21
45.95
62
10
0
LINE
8
Undeflected
10
1220.33
20
45.95
11
1220.7
21
45.95
62
1
0
LINE
8
Undeflected
10
1222.79
20
45.95
11
1223.11
21
45.95
62
2
0
LINE
8
Undeflected
10
1223.11
20
45.95
11
1223.36
21
45.95
62
3
0
LINE
8
Undeflected
10
1229.32
20
45.95
11
1229.69
21
45.95
62
4
0
LINE
8
Undeflected
10
1229.69
20
45.95
11
1229.32
21
45.95
62
5
0
LINE
8
Undeflected
10
1223.36
20
45.95
11
1222.99
21
45.95
62
6
0
LINE
8
Undeflected
10
1222.99
20
45.95
11
1222.79
21
45.95
62
7
0
LINE
8
Undeflected
10
1220.7
20
45.95
11
1220.33
21
45.95
62
8
0
LINE
8
Undeflected
10
1220.33
20
45.95
11
1220.14
21
45.95
62
9
0
LINE
8
Undeflected
10
1220.14
20
45.95
11
1220.33
21
45.95
62
10
0
LINE
8
Undeflected
10
1220.33
20
45.95
11
1220.7
21
45.95
62
1
0
LINE
8
Undeflected
10
1222.79
20
45.95
11
1223.11
21
45.95
62
2
0
LINE
8
Undeflected
10
1223.11
20
45.95
11
1223.36
21
45.95
62
3
0
LINE
8
Undeflected
10
1229.32
20
45.95
11
1229.69
21
45.95
62
4
0
LINE
8
Undeflected
10
1229.69
20
45.95
11
1229.39
21
45.95
62
5
0
LINE
8
Undeflected
10
1229.39
20
45.95
11
1229.32
21
45.95
62
6
0
LINE
8
Undeflected
10
1199.09
20
45.95
11
1229.32
21
45.95
62
7
0
LINE
8
Undeflected
10
1203.18
20
45.95
11
1203.24
21
45.95
62
8
0
LINE
8
Undeflected
10
1203.52
20
45.95
11
1203.53
21
45.95
62
9
0
LINE
8
Undeflected
10
1203.18
20
45.95
11
1203.24
21
45.95
62
10
0
LINE
8
Undeflected
10
1203.52
20
45.95
11
1203.53
21
45.95
62
1
0
LINE
8
Undeflected
10
1218.43
20
45.95
11
1218.3
21
45.95
62
2
0
LINE
8
Undeflected
10
1218.34
20
45.95
11
1218.4
21
45.95
62
3
0
LINE
8
Undeflected
10
1219.31
20
45.95
11
1219.44
21
45.95
62
4
0
LINE
8
Undeflected
10
1219.4
20
45.95
11
1219.34
21
45.95
62
5
0
LINE
8
Undeflected
10
1215.93
20
45.95
11
1215.8
21
45.95
62
6
0
LINE
8
Undeflected
10
1215.84
20
45.95
11
1215.9
21
45.95
62
7
0
LINE
8
Undeflected
10
1216.81
20
45.95
11
1216.94
21
45.95
62
8
0
LINE
8
Undeflected
10
1216.9
20
45.95
11
1216.84
21
45.95
62
9
0
LINE
8
Undeflected
10
1213.43
20
45.95
11
1213.3
21
45.95
62
10
0
LINE
8
Undeflected
10
1213.34
20
45.95
11
1213.4
21
45.95
62
1
0
LINE
8
Undeflected
10
1214.31
20
45.95
11
1214.44
21
45.95
62
2
0
LINE
8
Undeflected
10
1214.4
20
45.95
11
1214.34
21
45.95
62
3
0
LINE
8
Undeflected
10
1211.81
20
45.95
11
1211.94
21
45.95
62
4
0
LINE
8
Undeflected
10
1211.9
20
45.95
11
1211.84
21
45.95
62
5
0
LINE
8
Undeflected
10
1210.93
20
45.95
11
1210.8
21
45.95
62
6
0
LINE
8
Undeflected
10
1210.84
20
45.95
11
1210.9
21
45.95
62
7
0
LINE
8
Undeflected
10
1209.31
20
45.95
11
1209.44
21
45.95
62
8
0
LINE
8
Undeflected
10
1209.4
20
45.95
11
1209.34
21
45.95
62
9
0
LINE
8
Undeflected
10
1208.43
20
45.95
11
1208.3
21
45.95
62
10
0
LINE
8
Undeflected
10
1208.34
20
45.95
11
1208.4
21
45.95
62
1
0
LINE
8
Undeflected
10
1206.81
20
45.95
11
1206.94
21
45.95
62
2
0
LINE
8
Undeflected
10
1206.9
20
45.95
11
1206.84
21
45.95
62
3
0
LINE
8
Undeflected
10
1205.91
20
45.95
11
1205.85
21
45.95
62
4
0
LINE
8
Undeflected
10
1205.84
20
45.95
11
1205.9
21
45.95
62
5
0
LINE
8
Undeflected
10
1219.31
20
45.95
11
1219.44
21
45.95
62
6
0
LINE
8
Undeflected
10
1219.4
20
45.95
11
1219.34
21
45.95
62
7
0
LINE
8
Undeflected
10
1218.43
20
45.95
11
1218.3
21
45.95
62
8
0
LINE
8
Undeflected
10
1218.34
20
45.95
11
1218.4
21
45.95
62
9
0
LINE
8
Undeflected
10
1216.81
20
45.95
11
1216.94
21
45.95
62
10
0
LINE
8
Undeflected
10
1216.9
20
45.95
11
1216.84
21
45.95
62
1
0
LINE
8
Undeflected
10
1215.93
20
45.95
11
1215.8
21
45.95
62
2
0
LINE
8
Undeflected
10
1215.84
20
45.95
11
1215.9
21
45.95
62
3
0
LINE
8
Undeflected
10
1213.43
20
45.95
11
1213.3
21
45.95
62
4
0
LINE
8
Undeflected
10
1213.34
20
45.95
11
1213.4
21
45.95
62
5
0
LINE
8
Undeflected
10
1214.31
20
45.95
11
1214.44
21
45.95
62
6
0
LINE
8
Undeflected
10
1214.4
20
45.95
11
1214.34
21
45.95
62
7
0
LINE
8
Undeflected
10
1211.81
20
45.95
11
1211.94
21
45.95
62
8
0
LINE
8
Undeflected
10
1211.9
20
45.95
11
1211.84
21
45.95
62
9
0
LINE
8
Undeflected
10
1210.93
20
45.95
11
1210.8
21
45.95
62
10
0
LINE
8
Undeflected
10
1210.84
20
45.95
11
1210.9
21
45.95
62
1
0
LINE
8
Undeflected
10
1209.31
20
45.95
11
1209.44
21
45.95
62
2
0
LINE
8
Undeflected
10
1209.4
20
45.95
11
1209.34
21
45.95
62
3
0
LINE
8
Undeflected
10
1208.43
20
45.95
11
1208.3
21
45.95
62
4
0
LINE
8
Undeflected
10
1208.34
20
45.95
11
1208.4
21
45.95
62
5
0
LINE
8
Undeflected
10
1206.81
20
45.95
11
1206.94
21
45.95
62
6
0
LINE
8
Undeflected
10
1206.9
20
45.95
11
1206.84
21
45.95
62
7
0
LINE
8
Undeflected
10
1205.91
20
45.95
11
1205.85
21
45.95
62
8
0
LINE
8
Undeflected
10
1205.84
20
45.95
11
1205.9
21
45.95
62
9
0
LINE
8
Undeflected
10
1219.31
20
45.95
11
1219.44
21
45.95
62
10
0
LINE
8
Undeflected
10
1219.4
20
45.95
11
1219.34
21
45.95
62
1
0
LINE
8
Undeflected
10
1218.43
20
45.95
11
1218.3
21
45.95
62
2
0
LINE
8
Undeflected
10
1218.34
20
45.95
11
1218.4
21
45.95
62
3
0
LINE
8
Undeflected
10
1216.81
20
45.95
11
1216.94
21
45.95
62
4
0
LINE
8
Undeflected
10
1216.9
20
45.95
11
1216.84
21
45.95
62
5
0
LINE
8
Undeflected
10
1215.93
20
45.95
11
1215.8
21
45.95
62
6
0
LINE
8
Undeflected
10
1215.84
20
45.95
11
1215.9
21
45.95
62
7
0
LINE
8
Undeflected
10
1214.31
20
45.95
11
1214.44
21
45.95
62
8
0
LINE
8
Undeflected
10
1214.4
20
45.95
11
1214.34
21
45.95
62
9
0
LINE
8
Undeflected
10
1213.43
20
45.95
11
1213.3
21
45.95
62
10
0
LINE
8
Undeflected
10
1213.34
20
45.95
11
1213.4
21
45.95
62
1
0
LINE
8
Undeflected
10
1211.81
20
45.95
11
1211.94
21
45.95
62
2
0
LINE
8
Undeflected
10
1211.9
20
45.95
11
1211.84
21
45.95
62
3
0
LINE
8
Undeflected
10
1210.93
20
45.95
11
1210.8
21
45.95
62
4
0
LINE
8
Undeflected
10
1210.84
20
45.95
11
1210.9
21
45.95
62
5
0
LINE
8
Undeflected
10
1209.31
20
45.95
11
1209.44
21
45.95
62
6
0
LINE
8
Undeflected
10
1209.4
20
45.95
11
1209.34
21
45.95
62
7
0
LINE
8
Undeflected
10
1208.43
20
45.95
11
1208.3
21
45.95
62
8
0
LINE
8
Undeflected
10
1208.34
20
45.95
11
1208.4
21
45.95
62
9
0
LINE
8
Undeflected
10
1206.81
20
45.95
11
1206.94
21
45.95
62
10
0
LINE
8
Undeflected
10
1206.9
20
45.95
11
1206.84
21
45.95
62
1
0
LINE
8
Undeflected
10
1205.93
20
45.95
11
1205.8
21
45.95
62
2
0
LINE
8
Undeflected
10
1205.84
20
45.95
11
1205.9
21
45.95
62
3
0
LINE
8
Undeflected
10
1218.39
20
45.95
11
1218.18
21
45.95
62
4
0
LINE
8
Undeflected
10
1218.18
20
45.95
11
1218.07
21
45.95
62
5
0
LINE
8
Undeflected
10
1208.42
20
45.95
11
1208.11
21
45.95
62
6
0
LINE
8
Undeflected
10
1208.11
20
45.95
11
1208.03
21
45.95
62
7
0
LINE
8
Undeflected
10
1208.34
20
45.95
11
1208.4
21
45.95
62
8
0
LINE
8
Undeflected
10
1218.01
20
45.95
11
1218.14
21
45.95
62
9
0
LINE
8
Undeflected
10
1218.02
20
45.95
11
1218.33
21
45.95
62
10
0
LINE
8
Undeflected
10
1218.33
20
45.95
11
1218.41
21
45.95
62
1
0
LINE
8
Undeflected
10
1218.1
20
45.95
11
1218.04
21
45.95
62
2
0
LINE
8
Undeflected
10
1208.43
20
45.95
11
1208.3
21
45.95
62
3
0
LINE
8
Undeflected
10
1208.05
20
45.95
11
1208.26
21
45.95
62
4
0
LINE
8
Undeflected
10
1208.26
20
45.95
11
1208.37
21
45.95
62
5
0
LINE
8
Undeflected
10
1218.39
20
45.95
11
1218.18
21
45.95
62
6
0
LINE
8
Undeflected
10
1218.18
20
45.95
11
1218.07
21
45.95
62
7
0
LINE
8
Undeflected
10
1208.42
20
45.95
11
1208.11
21
45.95
62
8
0
LINE
8
Undeflected
10
1208.11
20
45.95
11
1208.03
21
45.95
62
9
0
LINE
8
Undeflected
10
1208.34
20
45.95
11
1208.4
21
45.95
62
10
0
LINE
8
Undeflected
10
1218.01
20
45.95
11
1218.14
21
45.95
62
1
0
LINE
8
Undeflected
10
1218.02
20
45.95
11
1218.33
21
45.95
62
2
0
LINE
8
Undeflected
10
1218.33
20
45.95
11
1218.41
21
45.95
62
3
0
LINE
8
Undeflected
10
1218.1
20
45.95
11
1218.04
21
45.95
62
4
0
LINE
8
Undeflected
10
1208.43
20
45.95
11
1208.3
21
45.95
62
5
0
LINE
8
Undeflected
10
1208.05
20
45.95
11
1208.26
21
45.95
62
6
0
LINE
8
Undeflected
10
1208.26
20
45.95
11
1208.37
21
45.95
62
7
0
LINE
8
Undeflected
10
1205.48
20
45.95
11
1205.82
21
45.95
62
8
0
LINE
8
Undeflected
10
1205.82
20
45.95
11
1205.94
21
45.95
62
9
0
LINE
8
Undeflected
10
1200.73
20
45.95
11
1200.6
21
45.95
62
10
0
LINE
8
Undeflected
10
1200.64
20
45.95
11
1200.7
21
45.95
62
1
0
LINE
8
Undeflected
10
1205.64
20
45.95
11
1205.9
21
45.95
62
2
0
LINE
8
Undeflected
10
1205.9
20
45.95
11
1205.93
21
45.95
62
3
0
LINE
8
Undeflected
10
1205.94
20
45.95
11
1205.92
21
45.95
62
4
0
LINE
8
Undeflected
10
1205.85
20
45.95
11
1205.68
21
45.95
62
5
0
LINE
8
Undeflected
10
1205.57
20
45.95
11
1205.5
21
45.95
62
6
0
LINE
8
Undeflected
10
1200.73
20
45.95
11
1200.6
21
45.95
62
7
0
LINE
8
Undeflected
10
1200.64
20
45.95
11
1200.7
21
45.95
62
8
0
LINE
8
Undeflected
10
1203.53
20
45.95
11
1203.53
21
45.95
62
9
0
LINE
8
Undeflected
10
1203.26
20
45.95
11
1203.21
21
45.95
62
10
0
LINE
8
Undeflected
10
1203.53
20
45.95
11
1203.51
21
45.95
62
1
0
LINE
8
Undeflected
10
1203.41
20
45.95
11
1203.36
21
45.95
62
2
0
LINE
8
Undeflected
10
1198.89
20
45.7813
11
1199.09
21
45.95
62
3
0
LINE
8
Undeflected
10
1199.09
20
45.95
11
1198.89
21
45.784
62
4
0
LINE
8
Undeflected
10
1199.07
20
45.65
11
1229.32
21
45.65
62
5
0
LINE
8
Undeflected
10
1229.32
20
45.65
11
1229.32
21
45.9296
62
6
0
LINE
8
Undeflected
10
1229.32
20
45.9296
11
1229.32
21
45.9492
62
7
0
LINE
8
Undeflected
10
1199.07
20
45.65
11
1199.09
21
45.9353
62
8
0
LINE
8
Undeflected
10
1199.09
20
45.9353
11
1199.09
21
45.95
62
9
0
LINE
8
Undeflected
10
1229.52
20
45.65
11
1229.33
21
45.65
62
10
0
LINE
8
Undeflected
10
1229.52
20
45.65
11
1229.52
21
45.7497
62
1
0
LINE
8
Undeflected
10
1229.32
20
45.95
11
1229.52
21
45.7641
62
2
0
LINE
8
Undeflected
10
1199.09
20
45.95
11
1199.09
21
45.9353
62
3
0
LINE
8
Undeflected
10
1199.09
20
45.8474
11
1199.08
21
45.7679
62
4
0
LINE
8
Undeflected
10
1202.86
20
-17.643
11
1202.82
21
-17.6948
62
5
0
LINE
8
Undeflected
10
1202.71
20
-17.7882
11
1202.54
21
-17.8417
62
6
0
LINE
8
Undeflected
10
1211.24
20
5.69654
11
1211.25
21
5.6965
62
7
0
LINE
8
Undeflected
10
1211.31
20
5.69354
11
1211.32
21
5.69277
62
8
0
LINE
8
Undeflected
10
1212.13
20
4.19654
11
1211.88
21
4.02401
62
9
0
LINE
8
Undeflected
10
1211.59
20
3.8738
11
1211.35
21
3.81081
62
10
0
LINE
8
Undeflected
10
1211.31
20
3.80645
11
1211.26
21
3.80369
62
1
0
LINE
8
Undeflected
10
1204.68
20
3.80346
11
1204.36
21
3.96804
62
2
0
LINE
8
Undeflected
10
1204.36
20
3.96804
11
1204.28
21
4.2034
62
3
0
LINE
8
Undeflected
10
1211.31
20
1.30645
11
1211.26
21
1.30369
62
4
0
LINE
8
Undeflected
10
1204.68
20
1.30346
11
1204.36
21
1.46804
62
5
0
LINE
8
Undeflected
10
1204.36
20
1.46804
11
1204.28
21
1.7034
62
6
0
LINE
8
Undeflected
10
1211.24
20
3.19654
11
1211.25
21
3.1965
62
7
0
LINE
8
Undeflected
10
1211.31
20
3.19354
11
1211.32
21
3.19277
62
8
0
LINE
8
Undeflected
10
1211.24
20
0.696539
11
1211.25
21
0.696496
62
9
0
LINE
8
Undeflected
10
1211.31
20
0.693541
11
1211.32
21
0.692773
62
10
0
LINE
8
Undeflected
10
1211.31
20
-1.19355
11
1211.26
21
-1.19631
62
1
0
LINE
8
Undeflected
10
1204.68
20
-1.19654
11
1204.36
21
-1.03196
62
2
0
LINE
8
Undeflected
10
1204.36
20
-1.03196
11
1204.28
21
-0.796599
62
3
0
LINE
8
Undeflected
10
1211.31
20
-1.80647
11
1211.32
21
-1.80724
62
4
0
LINE
8
Undeflected
10
1211.59
20
-1.8738
11
1211.83
21
-1.99542
62
5
0
LINE
8
Undeflected
10
1211.31
20
-3.69355
11
1211.26
21
-3.69631
62
6
0
LINE
8
Undeflected
10
1204.68
20
-3.69654
11
1204.36
21
-3.53196
62
7
0
LINE
8
Undeflected
10
1204.36
20
-3.53196
11
1204.28
21
-3.2966
62
8
0
LINE
8
Undeflected
10
1217.07
20
-4.30346
11
1204.68
21
-4.30346
62
9
0
LINE
8
Undeflected
10
1217.47
20
-4.7034
11
1217.47
21
-6.24024
62
10
0
LINE
8
Undeflected
10
1204.68
20
-6.64018
11
1204.36
21
-6.4756
62
1
0
LINE
8
Undeflected
10
1204.36
20
-6.4756
11
1204.28
21
-6.30489
62
2
0
LINE
8
Undeflected
10
1217.07
20
8.64018
11
1204.68
21
8.64018
62
3
0
LINE
8
Undeflected
10
1217.47
20
8.24024
11
1217.47
21
6.7034
62
4
0
LINE
8
Undeflected
10
1204.68
20
6.30346
11
1204.36
21
6.46804
62
5
0
LINE
8
Undeflected
10
1204.36
20
6.46804
11
1204.28
21
6.63875
62
6
0
LINE
8
Undeflected
10
1229.32
20
-43.95
11
1198.22
21
-43.95
62
7
0
LINE
8
Undeflected
10
1229.32
20
-43.95
11
1229.47
21
-43.95
62
8
0
LINE
8
Undeflected
10
1229.47
20
-43.95
11
1229.69
21
-43.95
62
9
0
LINE
8
Undeflected
10
1229.72
20
-43.95
11
1229.76
21
-43.95
62
10
0
LINE
8
Undeflected
10
1229.76
20
-43.95
11
1229.32
21
-43.95
62
1
0
LINE
8
Undeflected
10
1223.36
20
-43.95
11
1222.99
21
-43.95
62
2
0
LINE
8
Undeflected
10
1222.99
20
-43.95
11
1222.79
21
-43.95
62
3
0
LINE
8
Undeflected
10
1220.7
20
-43.95
11
1220.33
21
-43.95
62
4
0
LINE
8
Undeflected
10
1220.33
20
-43.95
11
1220.14
21
-43.95
62
5
0
LINE
8
Undeflected
10
1220.14
20
-43.95
11
1220.33
21
-43.95
62
6
0
LINE
8
Undeflected
10
1220.33
20
-43.95
11
1220.7
21
-43.95
62
7
0
LINE
8
Undeflected
10
1222.79
20
-43.95
11
1223.11
21
-43.95
62
8
0
LINE
8
Undeflected
10
1223.11
20
-43.95
11
1223.36
21
-43.95
62
9
0
LINE
8
Undeflected
10
1229.32
20
-43.95
11
1229.74
21
-43.95
62
10
0
LINE
8
Undeflected
10
1229.74
20
-43.95
11
1229.32
21
-43.95
62
1
0
LINE
8
Undeflected
10
1223.36
20
-43.95
11
1222.99
21
-43.95
62
2
0
LINE
8
Undeflected
10
1222.99
20
-43.95
11
1222.79
21
-43.95
62
3
0
LINE
8
Undeflected
10
1220.7
20
-43.95
11
1220.33
21
-43.95
62
4
0
LINE
8
Undeflected
10
1220.33
20
-43.95
11
1220.14
21
-43.95
62
5
0
LINE
8
Undeflected
10
1220.14
20
-43.95
11
1220.33
21
-43.95
62
6
0
LINE
8
Undeflected
10
1220.33
20
-43.95
11
1220.7
21
-43.95
62
7
0
LINE
8
Undeflected
10
1222.79
20
-43.95
11
1223.11
21
-43.95
62
8
0
LINE
8
Undeflected
10
1223.11
20
-43.95
11
1223.36
21
-43.95
62
9
0
LINE
8
Undeflected
10
1229.32
20
-43.95
11
1229.74
21
-43.95
62
10
0
LINE
8
Undeflected
10
1229.72
20
-43.95
11
1229.4
21
-43.95
62
1
0
LINE
8
Undeflected
10
1229.4
20
-43.95
11
1229.32
21
-43.95
62
2
0
LINE
8
Undeflected
10
1203.32
20
-43.95
11
1203.37
21
-43.95
62
3
0
LINE
8
Undeflected
10
1203.5
20
-43.95
11
1203.53
21
-43.95
62
4
0
LINE
8
Undeflected
10
1203.53
20
-43.95
11
1203.52
21
-43.95
62
5
0
LINE
8
Undeflected
10
1203.41
20
-43.95
11
1203.36
21
-43.95
62
6
0
LINE
8
Undeflected
10
1205.91
20
-43.95
11
1205.85
21
-43.95
62
7
0
LINE
8
Undeflected
10
1205.84
20
-43.95
11
1205.9
21
-43.95
62
8
0
LINE
8
Undeflected
10
1206.81
20
-43.95
11
1206.94
21
-43.95
62
9
0
LINE
8
Undeflected
10
1206.9
20
-43.95
11
1206.84
21
-43.95
62
10
0
LINE
8
Undeflected
10
1208.43
20
-43.95
11
1208.3
21
-43.95
62
1
0
LINE
8
Undeflected
10
1208.34
20
-43.95
11
1208.4
21
-43.95
62
2
0
LINE
8
Undeflected
10
1209.31
20
-43.95
11
1209.44
21
-43.95
62
3
0
LINE
8
Undeflected
10
1209.4
20
-43.95
11
1209.34
21
-43.95
62
4
0
LINE
8
Undeflected
10
1210.93
20
-43.95
11
1210.8
21
-43.95
62
5
0
LINE
8
Undeflected
10
1210.84
20
-43.95
11
1210.9
21
-43.95
62
6
0
LINE
8
Undeflected
10
1211.81
20
-43.95
11
1211.94
21
-43.95
62
7
0
LINE
8
Undeflected
10
1211.9
20
-43.95
11
1211.84
21
-43.95
62
8
0
LINE
8
Undeflected
10
1213.43
20
-43.95
11
1213.3
21
-43.95
62
9
0
LINE
8
Undeflected
10
1213.34
20
-43.95
11
1213.4
21
-43.95
62
10
0
LINE
8
Undeflected
10
1214.31
20
-43.95
11
1214.44
21
-43.95
62
1
0
LINE
8
Undeflected
10
1214.4
20
-43.95
11
1214.34
21
-43.95
62
2
0
LINE
8
Undeflected
10
1215.93
20
-43.95
11
1215.8
21
-43.95
62
3
0
LINE
8
Undeflected
10
1215.84
20
-43.95
11
1215.9
21
-43.95
62
4
0
LINE
8
Undeflected
10
1216.81
20
-43.95
11
1216.94
21
-43.95
62
5
0
LINE
8
Undeflected
10
1216.9
20
-43.95
11
1216.84
21
-43.95
62
6
0
LINE
8
Undeflected
10
1218.43
20
-43.95
11
1218.3
21
-43.95
62
7
0
LINE
8
Undeflected
10
1218.34
20
-43.95
11
1218.4
21
-43.95
62
8
0
LINE
8
Undeflected
10
1219.31
20
-43.95
11
1219.44
21
-43.95
62
9
0
LINE
8
Undeflected
10
1219.4
20
-43.95
11
1219.34
21
-43.95
62
10
0
LINE
8
Undeflected
10
1218.43
20
-43.95
11
1218.3
21
-43.95
62
1
0
LINE
8
Undeflected
10
1218.34
20
-43.95
11
1218.4
21
-43.95
62
2
0
LINE
8
Undeflected
10
1219.31
20
-43.95
11
1219.44
21
-43.95
62
3
0
LINE
8
Undeflected
10
1219.4
20
-43.95
11
1219.34
21
-43.95
62
4
0
LINE
8
Undeflected
10
1215.93
20
-43.95
11
1215.8
21
-43.95
62
5
0
LINE
8
Undeflected
10
1215.84
20
-43.95
11
1215.9
21
-43.95
62
6
0
LINE
8
Undeflected
10
1216.81
20
-43.95
11
1216.94
21
-43.95
62
7
0
LINE
8
Undeflected
10
1216.9
20
-43.95
11
1216.84
21
-43.95
62
8
0
LINE
8
Undeflected
10
1213.43
20
-43.95
11
1213.3
21
-43.95
62
9
0
LINE
8
Undeflected
10
1213.34
20
-43.95
11
1213.4
21
-43.95
62
10
0
LINE
8
Undeflected
10
1214.31
20
-43.95
11
1214.44
21
-43.95
62
1
0
LINE
8
Undeflected
10
1214.4
20
-43.95
11
1214.34
21
-43.95
62
2
0
LINE
8
Undeflected
10
1211.81
20
-43.95
11
1211.94
21
-43.95
62
3
0
LINE
8
Undeflected
10
1211.9
20
-43.95
11
1211.84
21
-43.95
62
4
0
LINE
8
Undeflected
10
1210.93
20
-43.95
11
1210.8
21
-43.95
62
5
0
LINE
8
Undeflected
10
1210.84
20
-43.95
11
1210.9
21
-43.95
62
6
0
LINE
8
Undeflected
10
1209.31
20
-43.95
11
1209.44
21
-43.95
62
7
0
LINE
8
Undeflected
10
1209.4
20
-43.95
11
1209.34
21
-43.95
62
8
0
LINE
8
Undeflected
10
1208.43
20
-43.95
11
1208.3
21
-43.95
62
9
0
LINE
8
Undeflected
10
1208.34
20
-43.95
11
1208.4
21
-43.95
62
10
0
LINE
8
Undeflected
10
1206.81
20
-43.95
11
1206.94
21
-43.95
62
1
0
LINE
8
Undeflected
10
1206.9
20
-43.95
11
1206.84
21
-43.95
62
2
0
LINE
8
Undeflected
10
1205.91
20
-43.95
11
1205.85
21
-43.95
62
3
0
LINE
8
Undeflected
10
1205.84
20
-43.95
11
1205.9
21
-43.95
62
4
0
LINE
8
Undeflected
10
1205.93
20
-43.95
11
1205.8
21
-43.95
62
5
0
LINE
8
Undeflected
10
1205.84
20
-43.95
11
1205.9
21
-43.95
62
6
0
LINE
8
Undeflected
10
1206.81
20
-43.95
11
1206.94
21
-43.95
62
7
0
LINE
8
Undeflected
10
1206.9
20
-43.95
11
1206.84
21
-43.95
62
8
0
LINE
8
Undeflected
10
1208.43
20
-43.95
11
1208.3
21
-43.95
62
9
0
LINE
8
Undeflected
10
1208.34
20
-43.95
11
1208.4
21
-43.95
62
10
0
LINE
8
Undeflected
10
1209.31
20
-43.95
11
1209.44
21
-43.95
62
1
0
LINE
8
Undeflected
10
1209.4
20
-43.95
11
1209.34
21
-43.95
62
2
0
LINE
8
Undeflected
10
1210.93
20
-43.95
11
1210.8
21
-43.95
62
3
0
LINE
8
Undeflected
10
1210.84
20
-43.95
11
1210.9
21
-43.95
62
4
0
LINE
8
Undeflected
10
1211.81
20
-43.95
11
1211.94
21
-43.95
62
5
0
LINE
8
Undeflected
10
1211.9
20
-43.95
11
1211.84
21
-43.95
62
6
0
LINE
8
Undeflected
10
1213.43
20
-43.95
11
1213.3
21
-43.95
62
7
0
LINE
8
Undeflected
10
1213.34
20
-43.95
11
1213.4
21
-43.95
62
8
0
LINE
8
Undeflected
10
1214.31
20
-43.95
11
1214.44
21
-43.95
62
9
0
LINE
8
Undeflected
10
1214.4
20
-43.95
11
1214.34
21
-43.95
62
10
0
LINE
8
Undeflected
10
1215.93
20
-43.95
11
1215.8
21
-43.95
62
1
0
LINE
8
Undeflected
10
1215.84
20
-43.95
11
1215.9
21
-43.95
62
2
0
LINE
8
Undeflected
10
1216.81
20
-43.95
11
1216.94
21
-43.95
62
3
0
LINE
8
Undeflected
10
1216.9
20
-43.95
11
1216.84
21
-43.95
62
4
0
LINE
8
Undeflected
10
1218.43
20
-43.95
11
1218.3
21
-43.95
62
5
0
LINE
8
Undeflected
10
1218.34
20
-43.95
11
1218.4
21
-43.95
62
6
0
LINE
8
Undeflected
10
1219.31
20
-43.95
11
1219.44
21
-43.95
62
7
0
LINE
8
Undeflected
10
1219.4
20
-43.95
11
1219.34
21
-43.95
62
8
0
LINE
8
Undeflected
10
1218.39
20
-43.95
11
1218.18
21
-43.95
62
9
0
LINE
8
Undeflected
10
1218.18
20
-43.95
11
1218.07
21
-43.95
62
10
0
LINE
8
Undeflected
10
1208.42
20
-43.95
11
1208.11
21
-43.95
62
1
0
LINE
8
Undeflected
10
1208.11
20
-43.95
11
1208.03
21
-43.95
62
2
0
LINE
8
Undeflected
10
1208.34
20
-43.95
11
1208.4
21
-43.95
62
3
0
LINE
8
Undeflected
10
1218.01
20
-43.95
11
1218.14
21
-43.95
62
4
0
LINE
8
Undeflected
10
1218.02
20
-43.95
11
1218.33
21
-43.95
62
5
0
LINE
8
Undeflected
10
1218.33
20
-43.95
11
1218.41
21
-43.95
62
6
0
LINE
8
Undeflected
10
1218.1
20
-43.95
11
1218.04
21
-43.95
62
7
0
LINE
8
Undeflected
10
1208.43
20
-43.95
11
1208.3
21
-43.95
62
8
0
LINE
8
Undeflected
10
1208.05
20
-43.95
11
1208.26
21
-43.95
62
9
0
LINE
8
Undeflected
10
1208.26
20
-43.95
11
1208.37
21
-43.95
62
10
0
LINE
8
Undeflected
10
1218.39
20
-43.95
11
1218.18
21
-43.95
62
1
0
LINE
8
Undeflected
10
1218.18
20
-43.95
11
1218.07
21
-43.95
62
2
0
LINE
8
Undeflected
10
1208.42
20
-43.95
11
1208.11
21
-43.95
62
3
0
LINE
8
Undeflected
10
1208.11
20
-43.95
11
1208.03
21
-43.95
62
4
0
LINE
8
Undeflected
10
1208.34
20
-43.95
11
1208.4
21
-43.95
62
5
0
LINE
8
Undeflected
10
1218.01
20
-43.95
11
1218.14
21
-43.95
62
6
0
LINE
8
Undeflected
10
1218.02
20
-43.95
11
1218.33
21
-43.95
62
7
0
LINE
8
Undeflected
10
1218.33
20
-43.95
11
1218.41
21
-43.95
62
8
0
LINE
8
Undeflected
10
1218.1
20
-43.95
11
1218.04
21
-43.95
62
9
0
LINE
8
Undeflected
10
1208.43
20
-43.95
11
1208.3
21
-43.95
62
10
0
LINE
8
Undeflected
10
1208.05
20
-43.95
11
1208.26
21
-43.95
62
1
0
LINE
8
Undeflected
10
1208.26
20
-43.95
11
1208.37
21
-43.95
62
2
0
LINE
8
Undeflected
10
1205.78
20
-43.95
11
1205.65
21
-43.95
62
3
0
LINE
8
Undeflected
10
1200.73
20
-43.95
11
1200.6
21
-43.95
62
4
0
LINE
8
Undeflected
10
1200.64
20
-43.95
11
1200.7
21
-43.95
62
5
0
LINE
8
Undeflected
10
1205.93
20
-43.95
11
1205.92
21
-43.95
62
6
0
LINE
8
Undeflected
10
1200.64
20
-43.95
11
1200.7
21
-43.95
62
7
0
LINE
8
Undeflected
10
1205.48
20
-43.95
11
1205.82
21
-43.95
62
8
0
LINE
8
Undeflected
10
1205.82
20
-43.95
11
1205.94
21
-43.95
62
9
0
LINE
8
Undeflected
10
1200.73
20
-43.95
11
1200.6
21
-43.95
62
10
0
LINE
8
Undeflected
10
1203.53
20
-43.95
11
1203.51
21
-43.95
62
1
0
LINE
8
Undeflected
10
1203.41
20
-43.95
11
1203.36
21
-43.95
62
2
0
LINE
8
Undeflected
10
1203.18
20
-43.95
11
1203.24
21
-43.95
62
3
0
LINE
8
Undeflected
10
1203.52
20
-43.95
11
1203.53
21
-43.95
62
4
0
LINE
8
Undeflected
10
1229.52
20
-43.75
11
1229.33
21
-43.9495
62
5
0
LINE
8
Undeflected
10
1229.52
20
-43.75
11
1229.52
21
-43.6571
62
6
0
LINE
8
Undeflected
10
1229.52
20
-41.5844
11
1229.52
21
-43.65
62
7
0
LINE
8
Undeflected
10
1229.52
20
-42.6507
11
1229.52
21
-42.7016
62
8
0
LINE
8
Undeflected
10
1229.52
20
-42.7016
11
1229.52
21
-42.8261
62
9
0
LINE
8
Undeflected
10
1229.52
20
-43.0756
11
1229.52
21
-43.0982
62
10
0
LINE
8
Undeflected
10
1198.02
20
-43.75
11
1198.21
21
-43.9495
62
1
0
LINE
8
Undeflected
10
1198.22
20
-43.95
11
1198.02
21
-43.7641
62
2
0
LINE
8
Undeflected
10
1223.62
20
-43.95
11
1223.62
21
-44.1326
62
3
0
LINE
8
Undeflected
10
1223.67
20
-44.0512
11
1223.73
21
-43.9903
62
4
0
LINE
8
Undeflected
10
1220.28
20
-44.0086
11
1220.15
21
-43.9507
62
5
0
LINE
8
Undeflected
10
1220.14
20
-43.95
11
1220.27
21
-43.997
62
6
0
LINE
8
Undeflected
10
1220.28
20
-44.0086
11
1222.02
21
-45.7471
62
7
0
LINE
8
Undeflected
10
1222.02
20
-45.7471
11
1222.07
21
-45.7985
62
8
0
LINE
8
Undeflected
10
1222.07
20
-45.7985
11
1222.02
21
-45.7471
62
9
0
LINE
8
Undeflected
10
1222.02
20
-45.7471
11
1220.28
21
-44.0086
62
10
0
LINE
8
Undeflected
10
1220.54
20
-44.0954
11
1220.28
21
-44.009
62
1
0
LINE
8
Undeflected
10
1222.57
20
-44.1465
11
1222.38
21
-44.1462
62
2
0
LINE
8
Undeflected
10
1222.38
20
-44.1462
11
1222.15
21
-44.1465
62
3
0
LINE
8
Undeflected
10
1222.16
20
-45.6092
11
1222.2
21
-45.6607
62
4
0
LINE
8
Undeflected
10
1222.57
20
-44.1465
11
1222.59
21
-45.9351
62
5
0
LINE
8
Undeflected
10
1222.93
20
-44.1465
11
1222.57
21
-44.1465
62
6
0
LINE
8
Undeflected
10
1222.71
20
-45.9512
11
1222.65
21
-45.9456
62
7
0
LINE
8
Undeflected
10
1222.8
20
-45.953
11
1222.82
21
-45.9535
62
8
0
LINE
8
Undeflected
10
1223.36
20
-44.1326
11
1223.04
21
-44.1417
62
9
0
LINE
8
Undeflected
10
1223.04
20
-44.1417
11
1222.93
21
-44.1465
62
10
0
LINE
8
Undeflected
10
1224.73
20
-45.2326
11
1224.57
21
-45.1264
62
1
0
LINE
8
Undeflected
10
1224.47
20
-45.0944
11
1223.81
21
-45.0599
62
2
0
LINE
8
Undeflected
10
1223.62
20
-44.1957
11
1223.62
21
-44.1644
62
3
0
LINE
8
Undeflected
10
1222.16
20
-45.6092
11
1222.02
21
-45.7469
62
4
0
LINE
8
Undeflected
10
1222.16
20
-45.6092
11
1220.7
21
-44.1465
62
5
0
LINE
8
Undeflected
10
1220.28
20
-44.0086
11
1220.57
21
-44.1056
62
6
0
LINE
8
Undeflected
10
1220.57
20
-44.1056
11
1220.7
21
-44.1465
62
7
0
LINE
8
Undeflected
10
1220.7
20
-44.1465
11
1222.15
21
-44.1465
62
8
0
LINE
8
Undeflected
10
1222.15
20
-44.1465
11
1222.16
21
-45.6092
62
9
0
LINE
8
Undeflected
10
1223.82
20
-43.95
11
1223.62
21
-44.1383
62
10
0
LINE
8
Undeflected
10
1223.62
20
-44.1383
11
1223.62
21
-43.95
62
1
0
LINE
8
Undeflected
10
1223.81
20
-45.0599
11
1223.62
21
-44.8602
62
2
0
LINE
8
Undeflected
10
1223.36
20
-44.1326
11
1223.63
21
-44.1326
62
3
0
LINE
8
Undeflected
10
1223.63
20
-44.1326
11
1223.62
21
-44.1957
62
4
0
LINE
8
Undeflected
10
1223.62
20
-44.1957
11
1223.62
21
-44.8602
62
5
0
LINE
8
Undeflected
10
1223.81
20
-45.0599
11
1224.47
21
-45.0944
62
6
0
LINE
8
Undeflected
10
1224.47
20
-45.0944
11
1224.57
21
-45.1264
62
7
0
LINE
8
Undeflected
10
1224.57
20
-45.1264
11
1224.73
21
-45.2326
62
8
0
LINE
8
Undeflected
10
1224.82
20
-45.4003
11
1224.73
21
-45.2326
62
9
0
LINE
8
Undeflected
10
1224.82
20
-45.4003
11
1224.82
21
-45.4892
62
10
0
LINE
8
Undeflected
10
1224.74
20
-45.7892
11
1224.82
21
-45.4892
62
1
0
LINE
8
Undeflected
10
1224.74
20
-45.7892
11
1224.64
21
-45.9674
62
2
0
LINE
8
Undeflected
10
1224.64
20
-45.9674
11
1223.24
21
-45.9674
62
3
0
LINE
8
Undeflected
10
1223.24
20
-45.9674
11
1223.36
21
-44.1326
62
4
0
LINE
8
Undeflected
10
1222.93
20
-44.1465
11
1222.82
21
-45.9526
62
5
0
LINE
8
Undeflected
10
1223.24
20
-45.9674
11
1222.93
21
-45.9583
62
6
0
LINE
8
Undeflected
10
1222.93
20
-45.9583
11
1222.82
21
-45.9526
62
7
0
LINE
8
Undeflected
10
1222.93
20
-44.1465
11
1223.22
21
-44.136
62
8
0
LINE
8
Undeflected
10
1223.22
20
-44.136
11
1223.36
21
-44.1326
62
9
0
LINE
8
Undeflected
10
1222.57
20
-44.1465
11
1222.93
21
-44.1465
62
10
0
LINE
8
Undeflected
10
1222.82
20
-45.9526
11
1222.78
21
-45.9535
62
1
0
LINE
8
Undeflected
10
1222.78
20
-45.9535
11
1222.64
21
-45.9437
62
2
0
LINE
8
Undeflected
10
1222.59
20
-45.9352
11
1222.57
21
-44.1465
62
3
0
LINE
8
Undeflected
10
1224.64
20
-45.9674
11
1224.53
21
-46.15
62
4
0
LINE
8
Undeflected
10
1224.53
20
-46.15
11
1223.24
21
-46.15
62
5
0
LINE
8
Undeflected
10
1223.24
20
-45.9674
11
1223.24
21
-46.0917
62
6
0
LINE
8
Undeflected
10
1223.24
20
-46.15
11
1224.53
21
-46.15
62
7
0
LINE
8
Undeflected
10
1222.96
20
-46.15
11
1223.21
21
-46.15
62
8
0
LINE
8
Undeflected
10
1222.92
20
-46.15
11
1222.96
21
-46.15
62
9
0
LINE
8
Undeflected
10
1222.96
20
-46.15
11
1222.92
21
-46.15
62
10
0
LINE
8
Undeflected
10
1223.16
20
-46.15
11
1222.98
21
-46.15
62
1
0
LINE
8
Undeflected
10
1222.92
20
-46.15
11
1222.78
21
-45.9782
62
2
0
LINE
8
Undeflected
10
1222.69
20
-46.128
11
1222.92
21
-46.15
62
3
0
LINE
8
Undeflected
10
1222.69
20
-46.128
11
1222.92
21
-46.15
62
4
0
LINE
8
Undeflected
10
1222.28
20
-45.9682
11
1222.47
21
-46.0639
62
5
0
LINE
8
Undeflected
10
1222.69
20
-46.128
11
1222.92
21
-46.15
62
6
0
LINE
8
Undeflected
10
1222.69
20
-46.128
11
1222.39
21
-46.0257
62
7
0
LINE
8
Undeflected
10
1222.39
20
-46.0257
11
1222.07
21
-45.7985
62
8
0
LINE
8
Undeflected
10
1222.59
20
-45.9352
11
1222.67
21
-46.1224
62
9
0
LINE
8
Undeflected
10
1222.2
20
-45.6607
11
1222.43
21
-45.8705
62
10
0
LINE
8
Undeflected
10
1222.43
20
-45.8705
11
1222.59
21
-45.9352
62
1
0
LINE
8
Undeflected
10
1222.07
20
-45.7985
11
1222.2
21
-45.6607
62
2
0
LINE
8
Undeflected
10
1222.69
20
-46.128
11
1222.37
21
-46.0192
62
3
0
LINE
8
Undeflected
10
1222.37
20
-46.0192
11
1222.07
21
-45.7997
62
4
0
LINE
8
Undeflected
10
1223.24
20
-45.9674
11
1223.24
21
-46.1493
62
5
0
LINE
8
Undeflected
10
1222.96
20
-46.15
11
1222.82
21
-45.9642
62
6
0
LINE
8
Undeflected
10
1222.07
20
-45.7909
11
1222.07
21
-45.7963
62
7
0
LINE
8
Undeflected
10
1229.72
20
-43.95
11
1229.72
21
-43.8581
62
8
0
LINE
8
Undeflected
10
1235.08
20
-36.1664
11
1235.12
21
-36.0525
62
9
0
LINE
8
Undeflected
10
1235.12
20
-36.05
11
1235.09
21
-36.1629
62
10
0
LINE
8
Undeflected
10
1229.52
20
44.5805
11
1229.52
21
45.65
62
1
0
LINE
8
Undeflected
10
1229.52
20
44.6507
11
1229.52
21
44.7016
62
2
0
LINE
8
Undeflected
10
1229.52
20
44.7016
11
1229.52
21
44.8261
62
3
0
LINE
8
Undeflected
10
1229.52
20
45.0756
11
1229.52
21
45.0982
62
4
0
LINE
8
Undeflected
10
1229.52
20
45.0983
11
1229.52
21
45.75
62
5
0
LINE
8
Undeflected
10
1198.88
20
45.6813
11
1198.89
21
45.7813
62
6
0
LINE
8
Undeflected
10
1198.89
20
45.7813
11
1198.88
21
45.6813
62
7
0
LINE
8
Undeflected
10
1198.02
20
40.2676
11
1198.88
21
45.6813
62
8
0
LINE
8
Undeflected
10
1198.65
20
44.2593
11
1198.69
21
44.5269
62
9
0
LINE
8
Undeflected
10
1198.69
20
44.5269
11
1198.7
21
44.5589
62
10
0
LINE
8
Undeflected
10
1198.7
20
44.5589
11
1198.67
21
44.3523
62
1
0
LINE
8
Undeflected
10
1198.67
20
44.3523
11
1198.65
21
44.2593
62
2
0
LINE
8
Undeflected
10
1198.65
20
44.2593
11
1198.69
21
44.5269
62
3
0
LINE
8
Undeflected
10
1198.69
20
44.5269
11
1198.7
21
44.5589
62
4
0
LINE
8
Undeflected
10
1198.65
20
44.2593
11
1198.69
21
44.5269
62
5
0
LINE
8
Undeflected
10
1198.69
20
44.5269
11
1198.7
21
44.5589
62
6
0
LINE
8
Undeflected
10
1198.02
20
39.1517
11
1198.02
21
36
62
7
0
LINE
8
Undeflected
10
1198.02
20
33
11
1198.02
21
21.7017
62
8
0
LINE
8
Undeflected
10
1198.02
20
40.2676
11
1198.02
21
39.1517
62
9
0
LINE
8
Undeflected
10
1198.02
20
39.1517
11
1198.02
21
38.8664
62
10
0
LINE
8
Undeflected
10
1198.02
20
38.8664
11
1198.02
21
38.8517
62
1
0
LINE
8
Undeflected
10
1198.02
20
38.8517
11
1198.02
21
39.0586
62
2
0
LINE
8
Undeflected
10
1198.02
20
39.0586
11
1198.02
21
39.1038
62
3
0
LINE
8
Undeflected
10
1198.02
20
40.2676
11
1198.02
21
39.1679
62
4
0
LINE
8
Undeflected
10
1198.02
20
39.1679
11
1198.02
21
39.1517
62
5
0
LINE
8
Undeflected
10
1198.02
20
40.2676
11
1198.02
21
39.1517
62
6
0
LINE
8
Undeflected
10
1198.02
20
39.1517
11
1198.02
21
38.8664
62
7
0
LINE
8
Undeflected
10
1198.02
20
38.8664
11
1198.02
21
38.8517
62
8
0
LINE
8
Undeflected
10
1198.02
20
38.8517
11
1198.02
21
39.0586
62
9
0
LINE
8
Undeflected
10
1198.02
20
39.0586
11
1198.02
21
39.1038
62
10
0
LINE
8
Undeflected
10
1198.02
20
39.1517
11
1198.02
21
40.2676
62
1
0
LINE
8
Undeflected
10
1198.02
20
40.2676
11
1198.02
21
39.1517
62
2
0
LINE
8
Undeflected
10
1198.02
20
39.1517
11
1198.02
21
38.8664
62
3
0
LINE
8
Undeflected
10
1198.02
20
38.8664
11
1198.02
21
38.8517
62
4
0
LINE
8
Undeflected
10
1198.02
20
38.8517
11
1198.02
21
39.0586
62
5
0
LINE
8
Undeflected
10
1198.02
20
39.0586
11
1198.02
21
39.1038
62
6
0
LINE
8
Undeflected
10
1198.02
20
39.1517
11
1198.02
21
40.2676
62
7
0
LINE
8
Undeflected
10
1198.02
20
39.1517
11
1198.02
21
39.1678
62
8
0
LINE
8
Undeflected
10
1198.02
20
39.1678
11
1198.02
21
40.2676
62
9
0
LINE
8
Undeflected
10
1198.02
20
39.1517
11
1198.02
21
38.8664
62
10
0
LINE
8
Undeflected
10
1198.02
20
38.8664
11
1198.02
21
38.8517
62
1
0
LINE
8
Undeflected
10
1198.02
20
38.8517
11
1198.02
21
39.0586
62
2
0
LINE
8
Undeflected
10
1198.02
20
39.0586
11
1198.02
21
39.1517
62
3
0
LINE
8
Undeflected
10
1198.02
20
39.1517
11
1198.02
21
40.2676
62
4
0
LINE
8
Undeflected
10
1198.02
20
20.7121
11
1198.02
21
40.2676
62
5
0
LINE
8
Undeflected
10
1198.02
20
20.7121
11
1198.02
21
20.6622
62
6
0
LINE
8
Undeflected
10
1198.02
20
20.6622
11
1198.02
21
20.539
62
7
0
LINE
8
Undeflected
10
1198.02
20
20.539
11
1198.02
21
20.2387
62
8
0
LINE
8
Undeflected
10
1198.02
20
20.2387
11
1198.02
21
20.1889
62
9
0
LINE
8
Undeflected
10
1198.02
20
20.1623
11
1198.02
21
16.6519
62
10
0
LINE
8
Undeflected
10
1198.02
20
16.6519
11
1198.02
21
16.5522
62
1
0
LINE
8
Undeflected
10
1198.02
20
16.5519
11
1198.02
21
16.4096
62
2
0
LINE
8
Undeflected
10
1198.02
20
16.4096
11
1198.02
21
16.5096
62
3
0
LINE
8
Undeflected
10
1198.02
20
20.55
11
1198.02
21
16.5096
62
4
0
LINE
8
Undeflected
10
1198.02
20
16.5096
11
1198.02
21
16.4096
62
5
0
LINE
8
Undeflected
10
1198.02
20
16.4096
11
1198.02
21
16.5096
62
6
0
LINE
8
Undeflected
10
1198.02
20
20.55
11
1198.02
21
20.6605
62
7
0
LINE
8
Undeflected
10
1198.02
20
38.0483
11
1198.02
21
37.8414
62
8
0
LINE
8
Undeflected
10
1198.02
20
37.8414
11
1198.02
21
37.7483
62
9
0
LINE
8
Undeflected
10
1198.02
20
37.7483
11
1198.02
21
22.0017
62
10
0
LINE
8
Undeflected
10
1198.02
20
22.0017
11
1198.02
21
21.7164
62
1
0
LINE
8
Undeflected
10
1198.02
20
21.7164
11
1198.02
21
21.7017
62
2
0
LINE
8
Undeflected
10
1198.02
20
20.1623
11
1198.02
21
18.1017
62
3
0
LINE
8
Undeflected
10
1198.02
20
18.1017
11
1198.02
21
17.778
62
4
0
LINE
8
Undeflected
10
1198.02
20
17.778
11
1198.02
21
17.7017
62
5
0
LINE
8
Undeflected
10
1198.02
20
17.7017
11
1198.02
21
17.8669
62
6
0
LINE
8
Undeflected
10
1198.02
20
17.8669
11
1198.02
21
18.1017
62
7
0
LINE
8
Undeflected
10
1198.02
20
18.1017
11
1198.02
21
20.1623
62
8
0
LINE
8
Undeflected
10
1198.02
20
20.8019
11
1198.02
21
21.1523
62
9
0
LINE
8
Undeflected
10
1198.02
20
21.1523
11
1198.02
21
21.4474
62
10
0
LINE
8
Undeflected
10
1198.02
20
21.4474
11
1198.02
21
21.6406
62
1
0
LINE
8
Undeflected
10
1198.02
20
21.6406
11
1198.02
21
21.6995
62
2
0
LINE
8
Undeflected
10
1198.02
20
21.7017
11
1198.02
21
21.7017
62
3
0
LINE
8
Undeflected
10
1198.02
20
21.7017
11
1198.02
21
21.9086
62
4
0
LINE
8
Undeflected
10
1198.02
20
21.9086
11
1198.02
21
22.0017
62
5
0
LINE
8
Undeflected
10
1198.02
20
22.0017
11
1198.02
21
37.7483
62
6
0
LINE
8
Undeflected
10
1198.02
20
37.7483
11
1198.02
21
38.0336
62
7
0
LINE
8
Undeflected
10
1198.02
20
38.0336
11
1198.02
21
38.0483
62
8
0
LINE
8
Undeflected
10
1198.02
20
33
11
1198.02
21
22.0017
62
9
0
LINE
8
Undeflected
10
1198.02
20
22.0017
11
1198.02
21
21.7164
62
10
0
LINE
8
Undeflected
10
1198.02
20
21.7164
11
1198.02
21
21.7017
62
1
0
LINE
8
Undeflected
10
1198.02
20
21.7017
11
1198.02
21
21.9086
62
2
0
LINE
8
Undeflected
10
1198.02
20
21.9086
11
1198.02
21
22.0017
62
3
0
LINE
8
Undeflected
10
1198.02
20
22.0017
11
1198.02
21
37.7483
62
4
0
LINE
8
Undeflected
10
1198.02
20
37.7483
11
1198.02
21
38.0336
62
5
0
LINE
8
Undeflected
10
1198.02
20
38.0336
11
1198.02
21
38.0483
62
6
0
LINE
8
Undeflected
10
1198.02
20
38.0483
11
1198.02
21
37.8414
62
7
0
LINE
8
Undeflected
10
1198.02
20
37.8414
11
1198.02
21
37.7483
62
8
0
LINE
8
Undeflected
10
1198.02
20
37.7483
11
1198.02
21
36
62
9
0
LINE
8
Undeflected
10
1198.02
20
33
11
1198.02
21
36
62
10
0
LINE
8
Undeflected
10
1198.02
20
36
11
1198.02
21
37.7483
62
1
0
LINE
8
Undeflected
10
1198.02
20
37.7483
11
1198.02
21
38.0336
62
2
0
LINE
8
Undeflected
10
1198.02
20
38.0336
11
1198.02
21
38.0483
62
3
0
LINE
8
Undeflected
10
1198.02
20
38.0483
11
1198.02
21
37.8414
62
4
0
LINE
8
Undeflected
10
1198.02
20
37.8414
11
1198.02
21
37.7483
62
5
0
LINE
8
Undeflected
10
1198.02
20
37.7483
11
1198.02
21
36
62
6
0
LINE
8
Undeflected
10
1198.02
20
33
11
1198.02
21
22.0017
62
7
0
LINE
8
Undeflected
10
1198.02
20
22.0017
11
1198.02
21
21.7164
62
8
0
LINE
8
Undeflected
10
1198.02
20
21.7164
11
1198.02
21
21.7017
62
9
0
LINE
8
Undeflected
10
1198.02
20
20.8019
11
1198.02
21
20.7121
62
10
0
LINE
8
Undeflected
10
1198.02
20
18.1017
11
1198.02
21
20.8019
62
1
0
LINE
8
Undeflected
10
1198.02
20
21.7017
11
1198.02
21
21.9086
62
2
0
LINE
8
Undeflected
10
1198.02
20
21.9086
11
1198.02
21
22.0017
62
3
0
LINE
8
Undeflected
10
1198.02
20
22.0017
11
1198.02
21
33
62
4
0
LINE
8
Undeflected
10
1205.94
20
45.95
11
1205.93
21
45.95
62
5
0
LINE
8
Undeflected
10
1198.02
20
39.1678
11
1198.02
21
40.2676
62
6
0
LINE
8
Undeflected
10
1198.02
20
40.2676
11
1198.22
21
40.2519
62
7
0
LINE
8
Undeflected
10
1198.22
20
20.7121
11
1198.02
21
20.7121
62
8
0
LINE
8
Undeflected
10
1198.22
20
40.2519
11
1198.22
21
20.7121
62
9
0
LINE
8
Undeflected
10
1218.32
20
35
11
1218.32
21
-33
62
10
0
LINE
8
Undeflected
10
1220.32
20
-35
11
1234.92
21
-35
62
1
0
LINE
8
Undeflected
10
1234.92
20
-36.05
11
1234.92
21
-35
62
2
0
LINE
8
Undeflected
10
1232.68
20
-36.05
11
1234.92
21
-36.05
62
3
0
LINE
8
Undeflected
10
1232.68
20
-36.05
11
1232.37
21
-36.1887
62
4
0
LINE
8
Undeflected
10
1232.37
20
-36.1887
11
1232.27
21
-36.3918
62
5
0
LINE
8
Undeflected
10
1232.27
20
-36.3918
11
1232.2
21
-36.883
62
6
0
LINE
8
Undeflected
10
1232.2
20
-36.883
11
1232.13
21
-37.3744
62
7
0
LINE
8
Undeflected
10
1232.13
20
-37.3744
11
1232.05
21
-37.8657
62
8
0
LINE
8
Undeflected
10
1232.05
20
-37.8657
11
1231.97
21
-38.3569
62
9
0
LINE
8
Undeflected
10
1231.97
20
-38.3569
11
1231.9
21
-38.8478
62
10
0
LINE
8
Undeflected
10
1231.9
20
-38.8478
11
1231.88
21
-39.0237
62
1
0
LINE
8
Undeflected
10
1231.88
20
-40.3603
11
1231.88
21
-39.0237
62
2
0
LINE
8
Undeflected
10
1231.88
20
-40.3603
11
1231.78
21
-40.4606
62
3
0
LINE
8
Undeflected
10
1230.4
20
-40.4846
11
1231.78
21
-40.4606
62
4
0
LINE
8
Undeflected
10
1230.4
20
-40.4846
11
1230.08
21
-40.5394
62
5
0
LINE
8
Undeflected
10
1230.08
20
-40.5394
11
1229.78
21
-40.6875
62
6
0
LINE
8
Undeflected
10
1229.78
20
-40.6875
11
1229.55
21
-40.9158
62
7
0
LINE
8
Undeflected
10
1229.55
20
-40.9158
11
1229.39
21
-41.2038
62
8
0
LINE
8
Undeflected
10
1229.39
20
-41.2038
11
1229.32
21
-41.5258
62
9
0
LINE
8
Undeflected
10
1229.32
20
-43.65
11
1229.32
21
-41.5844
62
10
0
LINE
8
Undeflected
10
1198.22
20
-43.65
11
1229.32
21
-43.65
62
1
0
LINE
8
Undeflected
10
1198.22
20
-17.8423
11
1198.22
21
-43.65
62
2
0
LINE
8
Undeflected
10
1198.22
20
-17.8423
11
1202.51
21
-17.8423
62
3
0
LINE
8
Undeflected
10
1202.51
20
-17.8423
11
1202.84
21
-17.6771
62
4
0
LINE
8
Undeflected
10
1202.84
20
-17.6771
11
1202.91
21
-17.4423
62
5
0
LINE
8
Undeflected
10
1202.91
20
-17.4423
11
1202.91
21
-12.8726
62
6
0
LINE
8
Undeflected
10
1202.91
20
-12.8726
11
1202.72
21
-12.8726
62
7
0
LINE
8
Undeflected
10
1202.72
20
14.0362
11
1202.72
21
-12.8726
62
8
0
LINE
8
Undeflected
10
1203.38
20
14.0362
11
1202.72
21
14.0362
62
9
0
LINE
8
Undeflected
10
1203.38
20
20.7121
11
1203.38
21
14.0362
62
10
0
LINE
8
Undeflected
10
1198.22
20
20.7121
11
1203.38
21
20.7121
62
1
0
LINE
8
Undeflected
10
1198.22
20
40.2519
11
1199.07
21
45.65
62
2
0
LINE
8
Undeflected
10
1229.32
20
43.5844
11
1229.32
21
45.65
62
3
0
LINE
8
Undeflected
10
1229.32
20
43.5844
11
1229.37
21
43.2594
62
4
0
LINE
8
Undeflected
10
1229.37
20
43.2594
11
1229.51
21
42.9633
62
5
0
LINE
8
Undeflected
10
1229.51
20
42.9633
11
1229.74
21
42.7228
62
6
0
LINE
8
Undeflected
10
1229.74
20
42.7228
11
1230.02
21
42.5592
62
7
0
LINE
8
Undeflected
10
1230.02
20
42.5592
11
1230.34
21
42.4872
62
8
0
LINE
8
Undeflected
10
1231.78
20
42.4606
11
1230.4
21
42.4846
62
9
0
LINE
8
Undeflected
10
1231.78
20
42.4606
11
1231.88
21
42.3603
62
10
0
LINE
8
Undeflected
10
1231.88
20
41.0237
11
1231.88
21
42.3603
62
1
0
LINE
8
Undeflected
10
1231.88
20
41.0237
11
1231.9
21
40.8478
62
2
0
LINE
8
Undeflected
10
1231.9
20
40.8478
11
1231.97
21
40.3569
62
3
0
LINE
8
Undeflected
10
1231.97
20
40.3569
11
1232.05
21
39.8657
62
4
0
LINE
8
Undeflected
10
1232.05
20
39.8657
11
1232.13
21
39.3744
62
5
0
LINE
8
Undeflected
10
1232.13
20
39.3744
11
1232.2
21
38.883
62
6
0
LINE
8
Undeflected
10
1232.2
20
38.883
11
1232.27
21
38.3917
62
7
0
LINE
8
Undeflected
10
1232.27
20
38.3917
11
1232.46
21
38.112
62
8
0
LINE
8
Undeflected
10
1232.46
20
38.112
11
1232.68
21
38.05
62
9
0
LINE
8
Undeflected
10
1234.92
20
38.05
11
1232.68
21
38.05
62
10
0
LINE
8
Undeflected
10
1234.92
20
37
11
1234.92
21
38.05
62
1
0
LINE
8
Undeflected
10
1234.92
20
37
11
1220.32
21
37
62
2
0
LINE
8
Undeflected
10
1211.24
20
-3.69654
11
1211.33
21
-3.69218
62
3
0
LINE
8
Undeflected
10
1211.33
20
-3.69218
11
1211.64
21
-3.60515
62
4
0
LINE
8
Undeflected
10
1211.64
20
-3.60515
11
1211.97
21
-3.42111
62
5
0
LINE
8
Undeflected
10
1211.97
20
-3.42111
11
1212.13
21
-3.30346
62
6
0
LINE
8
Undeflected
10
1212.13
20
-2.19654
11
1212.13
21
-3.30346
62
7
0
LINE
8
Undeflected
10
1212.13
20
-2.19654
11
1211.8
21
-1.97661
62
8
0
LINE
8
Undeflected
10
1211.8
20
-1.97661
11
1211.49
21
-1.84114
62
9
0
LINE
8
Undeflected
10
1211.49
20
-1.84114
11
1211.33
21
-1.80782
62
10
0
LINE
8
Undeflected
10
1211.33
20
-1.80782
11
1211.24
21
-1.80346
62
1
0
LINE
8
Undeflected
10
1211.24
20
-1.80346
11
1204.68
21
-1.80346
62
2
0
LINE
8
Undeflected
10
1204.68
20
-1.80346
11
1204.36
21
-1.96804
62
3
0
LINE
8
Undeflected
10
1204.36
20
-1.96804
11
1204.28
21
-2.2034
62
4
0
LINE
8
Undeflected
10
1204.28
20
-3.2966
11
1204.28
21
-2.2034
62
5
0
LINE
8
Undeflected
10
1204.28
20
-3.2966
11
1204.44
21
-3.61984
62
6
0
LINE
8
Undeflected
10
1204.44
20
-3.61984
11
1204.68
21
-3.69654
62
7
0
LINE
8
Undeflected
10
1204.68
20
-3.69654
11
1211.24
21
-3.69654
62
8
0
LINE
8
Undeflected
10
1211.24
20
-1.19654
11
1211.33
21
-1.19218
62
9
0
LINE
8
Undeflected
10
1211.33
20
-1.19218
11
1211.64
21
-1.10515
62
10
0
LINE
8
Undeflected
10
1211.64
20
-1.10515
11
1211.97
21
-0.921108
62
1
0
LINE
8
Undeflected
10
1211.97
20
-0.921108
11
1212.13
21
-0.803461
62
2
0
LINE
8
Undeflected
10
1212.13
20
0.303463
11
1212.13
21
-0.803461
62
3
0
LINE
8
Undeflected
10
1212.13
20
0.303463
11
1211.8
21
0.523385
62
4
0
LINE
8
Undeflected
10
1211.8
20
0.523385
11
1211.49
21
0.65886
62
5
0
LINE
8
Undeflected
10
1211.49
20
0.65886
11
1211.33
21
0.692183
62
6
0
LINE
8
Undeflected
10
1211.33
20
0.692183
11
1211.24
21
0.696539
62
7
0
LINE
8
Undeflected
10
1211.24
20
0.696539
11
1204.68
21
0.696539
62
8
0
LINE
8
Undeflected
10
1204.68
20
0.696539
11
1204.36
21
0.531963
62
9
0
LINE
8
Undeflected
10
1204.36
20
0.531963
11
1204.28
21
0.296599
62
10
0
LINE
8
Undeflected
10
1204.28
20
-0.796599
11
1204.28
21
0.296599
62
1
0
LINE
8
Undeflected
10
1204.28
20
-0.796599
11
1204.44
21
-1.11984
62
2
0
LINE
8
Undeflected
10
1204.44
20
-1.11984
11
1204.68
21
-1.19654
62
3
0
LINE
8
Undeflected
10
1204.68
20
-1.19654
11
1211.24
21
-1.19654
62
4
0
LINE
8
Undeflected
10
1211.24
20
1.30346
11
1211.33
21
1.30782
62
5
0
LINE
8
Undeflected
10
1211.33
20
1.30782
11
1211.64
21
1.39485
62
6
0
LINE
8
Undeflected
10
1211.64
20
1.39485
11
1211.97
21
1.57889
62
7
0
LINE
8
Undeflected
10
1211.97
20
1.57889
11
1212.13
21
1.69654
62
8
0
LINE
8
Undeflected
10
1212.13
20
2.80346
11
1212.13
21
1.69654
62
9
0
LINE
8
Undeflected
10
1212.13
20
2.80346
11
1211.8
21
3.02339
62
10
0
LINE
8
Undeflected
10
1211.8
20
3.02339
11
1211.49
21
3.15886
62
1
0
LINE
8
Undeflected
10
1211.49
20
3.15886
11
1211.33
21
3.19218
62
2
0
LINE
8
Undeflected
10
1211.33
20
3.19218
11
1211.24
21
3.19654
62
3
0
LINE
8
Undeflected
10
1211.24
20
3.19654
11
1204.68
21
3.19654
62
4
0
LINE
8
Undeflected
10
1204.68
20
3.19654
11
1204.36
21
3.03196
62
5
0
LINE
8
Undeflected
10
1204.36
20
3.03196
11
1204.28
21
2.7966
62
6
0
LINE
8
Undeflected
10
1204.28
20
1.7034
11
1204.28
21
2.7966
62
7
0
LINE
8
Undeflected
10
1204.28
20
1.7034
11
1204.44
21
1.38016
62
8
0
LINE
8
Undeflected
10
1204.44
20
1.38016
11
1204.68
21
1.30346
62
9
0
LINE
8
Undeflected
10
1204.68
20
1.30346
11
1211.24
21
1.30346
62
10
0
LINE
8
Undeflected
10
1211.24
20
3.80346
11
1211.33
21
3.80782
62
1
0
LINE
8
Undeflected
10
1211.33
20
3.80782
11
1211.64
21
3.89485
62
2
0
LINE
8
Undeflected
10
1211.64
20
3.89485
11
1211.97
21
4.07889
62
3
0
LINE
8
Undeflected
10
1211.97
20
4.07889
11
1212.13
21
4.19654
62
4
0
LINE
8
Undeflected
10
1212.13
20
5.30346
11
1212.13
21
4.19654
62
5
0
LINE
8
Undeflected
10
1212.13
20
5.30346
11
1211.8
21
5.52339
62
6
0
LINE
8
Undeflected
10
1211.8
20
5.52339
11
1211.49
21
5.65886
62
7
0
LINE
8
Undeflected
10
1211.49
20
5.65886
11
1211.33
21
5.69218
62
8
0
LINE
8
Undeflected
10
1211.33
20
5.69218
11
1211.24
21
5.69654
62
9
0
LINE
8
Undeflected
10
1211.24
20
5.69654
11
1204.68
21
5.69654
62
10
0
LINE
8
Undeflected
10
1204.68
20
5.69654
11
1204.36
21
5.53196
62
1
0
LINE
8
Undeflected
10
1204.36
20
5.53196
11
1204.28
21
5.2966
62
2
0
LINE
8
Undeflected
10
1204.28
20
4.2034
11
1204.28
21
5.2966
62
3
0
LINE
8
Undeflected
10
1204.28
20
4.2034
11
1204.44
21
3.88016
62
4
0
LINE
8
Undeflected
10
1204.44
20
3.88016
11
1204.68
21
3.80346
62
5
0
LINE
8
Undeflected
10
1204.68
20
3.80346
11
1211.24
21
3.80346
62
6
0
LINE
8
Undeflected
10
1204.68
20
6.30346
11
1217.07
21
6.30346
62
7
0
LINE
8
Undeflected
10
1217.07
20
6.30346
11
1217.39
21
6.46804
62
8
0
LINE
8
Undeflected
10
1217.39
20
6.46804
11
1217.47
21
6.7034
62
9
0
LINE
8
Undeflected
10
1217.47
20
8.24024
11
1217.47
21
6.7034
62
10
0
LINE
8
Undeflected
10
1217.47
20
8.24024
11
1217.3
21
8.56348
62
1
0
LINE
8
Undeflected
10
1217.3
20
8.56348
11
1217.07
21
8.64018
62
2
0
LINE
8
Undeflected
10
1217.07
20
8.64018
11
1204.68
21
8.64018
62
3
0
LINE
8
Undeflected
10
1204.68
20
8.64018
11
1204.36
21
8.4756
62
4
0
LINE
8
Undeflected
10
1204.36
20
8.4756
11
1204.28
21
8.24024
62
5
0
LINE
8
Undeflected
10
1204.28
20
6.7034
11
1204.28
21
8.24024
62
6
0
LINE
8
Undeflected
10
1204.28
20
6.7034
11
1204.44
21
6.38016
62
7
0
LINE
8
Undeflected
10
1204.44
20
6.38016
11
1204.68
21
6.30346
62
8
0
LINE
8
Undeflected
10
1204.68
20
-6.64018
11
1217.07
21
-6.64018
62
9
0
LINE
8
Undeflected
10
1217.07
20
-6.64018
11
1217.39
21
-6.4756
62
10
0
LINE
8
Undeflected
10
1217.39
20
-6.4756
11
1217.47
21
-6.24024
62
1
0
LINE
8
Undeflected
10
1217.47
20
-4.7034
11
1217.47
21
-6.24024
62
2
0
LINE
8
Undeflected
10
1217.47
20
-4.7034
11
1217.3
21
-4.38016
62
3
0
LINE
8
Undeflected
10
1217.3
20
-4.38016
11
1217.07
21
-4.30346
62
4
0
LINE
8
Undeflected
10
1217.07
20
-4.30346
11
1204.68
21
-4.30346
62
5
0
LINE
8
Undeflected
10
1204.68
20
-4.30346
11
1204.36
21
-4.46804
62
6
0
LINE
8
Undeflected
10
1204.36
20
-4.46804
11
1204.28
21
-4.7034
62
7
0
LINE
8
Undeflected
10
1204.28
20
-6.24024
11
1204.28
21
-4.7034
62
8
0
LINE
8
Undeflected
10
1204.28
20
-6.24024
11
1204.44
21
-6.56348
62
9
0
LINE
8
Undeflected
10
1204.44
20
-6.56348
11
1204.68
21
-6.64018
62
10
0
LINE
8
Undeflected
10
1235.12
20
-36.05
11
1234.93
21
-36.05
62
1
0
LINE
8
Undeflected
10
1235.12
20
38.05
11
1235.12
21
37
62
2
0
LINE
8
Undeflected
10
1235.12
20
-35
11
1235.12
21
-36.05
62
3
0
LINE
8
Undeflected
10
1234.92
20
38.05
11
1235.12
21
38.05
62
4
0
LINE
8
Undeflected
10
1234.92
20
38.25
11
1234.92
21
38.0641
62
5
0
LINE
8
Undeflected
10
1232.68
20
38.25
11
1234.92
21
38.25
62
6
0
LINE
8
Undeflected
10
1232.68
20
38.05
11
1232.68
21
38.25
62
7
0
LINE
8
Undeflected
10
1232.47
20
38.4207
11
1232.47
21
38.4213
62
8
0
LINE
8
Undeflected
10
1232.47
20
38.4214
11
1232.3
21
38.396
62
9
0
LINE
8
Undeflected
10
1232.47
20
38.4207
11
1232.39
21
38.9365
62
10
0
LINE
8
Undeflected
10
1232.39
20
38.9365
11
1232.31
21
39.4407
62
1
0
LINE
8
Undeflected
10
1232.31
20
39.4407
11
1232.23
21
39.9329
62
2
0
LINE
8
Undeflected
10
1232.23
20
39.9329
11
1232.16
21
40.4119
62
3
0
LINE
8
Undeflected
10
1232.16
20
40.4119
11
1232.08
21
40.8771
62
4
0
LINE
8
Undeflected
10
1231.9
20
40.8478
11
1232.09
21
40.8785
62
5
0
LINE
8
Undeflected
10
1232.09
20
40.8791
11
1232.08
21
40.8771
62
6
0
LINE
8
Undeflected
10
1232.47
20
38.4214
11
1232.4
21
38.9131
62
7
0
LINE
8
Undeflected
10
1232.4
20
38.9131
11
1232.32
21
39.4047
62
8
0
LINE
8
Undeflected
10
1232.32
20
39.4047
11
1232.25
21
39.8963
62
9
0
LINE
8
Undeflected
10
1232.25
20
39.8963
11
1232.17
21
40.3878
62
10
0
LINE
8
Undeflected
10
1232.17
20
40.3878
11
1232.09
21
40.8791
62
1
0
LINE
8
Undeflected
10
1232.07
20
42.3603
11
1232.08
21
42.3603
62
2
0
LINE
8
Undeflected
10
1232.08
20
42.3603
11
1231.9
21
42.3603
62
3
0
LINE
8
Undeflected
10
1232.07
20
41.0237
11
1232.08
21
41.0237
62
4
0
LINE
8
Undeflected
10
1232.08
20
41.0237
11
1231.9
21
41.0237
62
5
0
LINE
8
Undeflected
10
1232.07
20
41.0237
11
1232.07
21
42.3603
62
6
0
LINE
8
Undeflected
10
1232.08
20
41.0237
11
1232.08
21
42.3603
62
7
0
LINE
8
Undeflected
10
1231.88
20
41.0237
11
1232.06
21
41.0237
62
8
0
LINE
8
Undeflected
10
1231.59
20
42.6639
11
1231.66
21
42.6626
62
9
0
LINE
8
Undeflected
10
1231.68
20
42.6622
11
1231.77
21
42.6608
62
10
0
LINE
8
Undeflected
10
1232.07
20
42.3603
11
1231.87
21
42.6441
62
1
0
LINE
8
Undeflected
10
1231.87
20
42.6441
11
1231.78
21
42.6606
62
2
0
LINE
8
Undeflected
10
1231.77
20
42.6608
11
1231.69
21
42.6621
62
3
0
LINE
8
Undeflected
10
1231.78
20
42.4606
11
1231.78
21
42.6601
62
4
0
LINE
8
Undeflected
10
1232.08
20
42.3603
11
1231.86
21
42.6484
62
5
0
LINE
8
Undeflected
10
1231.86
20
42.6484
11
1231.78
21
42.6606
62
6
0
LINE
8
Undeflected
10
1231.78
20
42.6606
11
1230.4
21
42.6846
62
7
0
LINE
8
Undeflected
10
1230.4
20
42.6846
11
1230.4
21
42.4987
62
8
0
LINE
8
Undeflected
10
1229.52
20
43.5844
11
1229.59
21
43.234
62
9
0
LINE
8
Undeflected
10
1229.59
20
43.234
11
1229.79
21
42.9388
62
10
0
LINE
8
Undeflected
10
1229.79
20
42.9388
11
1230.09
21
42.7456
62
1
0
LINE
8
Undeflected
10
1230.09
20
42.7456
11
1230.36
21
42.6867
62
2
0
LINE
8
Undeflected
10
1229.32
20
43.5844
11
1229.52
21
43.5844
62
3
0
LINE
8
Undeflected
10
1229.52
20
45.65
11
1229.52
21
43.5844
62
4
0
LINE
8
Undeflected
10
1229.52
20
45.75
11
1229.52
21
45.0983
62
5
0
LINE
8
Undeflected
10
1229.52
20
45.0983
11
1229.52
21
44.9354
62
6
0
LINE
8
Undeflected
10
1229.52
20
44.9354
11
1229.52
21
44.6994
62
7
0
LINE
8
Undeflected
10
1232.68
20
38.25
11
1232.56
21
38.25
62
8
0
LINE
8
Undeflected
10
1232.56
20
38.25
11
1232.34
21
38.25
62
9
0
LINE
8
Undeflected
10
1232.32
20
38.25
11
1232.68
21
38.25
62
10
0
LINE
8
Undeflected
10
1234.92
20
38.25
11
1235.12
21
38.05
62
1
0
LINE
8
Undeflected
10
1235.06
20
38.1914
11
1234.94
21
38.2493
62
2
0
LINE
8
Undeflected
10
1235.12
20
38.05
11
1235.07
21
38.1788
62
3
0
LINE
8
Undeflected
10
1232.08
20
40.8771
11
1231.92
21
40.8771
62
4
0
LINE
8
Undeflected
10
1232.68
20
-36.25
11
1232.68
21
-36.0641
62
5
0
LINE
8
Undeflected
10
1234.92
20
-36.25
11
1232.68
21
-36.25
62
6
0
LINE
8
Undeflected
10
1234.92
20
-36.05
11
1234.92
21
-36.2495
62
7
0
LINE
8
Undeflected
10
1232.68
20
-36.25
11
1232.33
21
-36.25
62
8
0
LINE
8
Undeflected
10
1232.33
20
-36.25
11
1232.55
21
-36.25
62
9
0
LINE
8
Undeflected
10
1232.55
20
-36.25
11
1232.68
21
-36.25
62
10
0
LINE
8
Undeflected
10
1235.12
20
-36.05
11
1234.92
21
-36.25
62
1
0
LINE
8
Undeflected
10
1235.06
20
-36.1914
11
1235.12
21
-36.0671
62
2
0
LINE
8
Undeflected
10
1234.92
20
-36.25
11
1235.05
21
-36.203
62
3
0
LINE
8
Undeflected
10
1232.08
20
-38.8771
11
1232.09
21
-38.8791
62
4
0
LINE
8
Undeflected
10
1232.09
20
-38.8791
11
1231.93
21
-38.8531
62
5
0
LINE
8
Undeflected
10
1232.08
20
-38.8771
11
1232.16
21
-38.3828
62
6
0
LINE
8
Undeflected
10
1232.16
20
-38.3828
11
1232.24
21
-37.9117
62
7
0
LINE
8
Undeflected
10
1232.24
20
-37.9117
11
1232.31
21
-37.4543
62
8
0
LINE
8
Undeflected
10
1232.31
20
-37.4543
11
1232.39
21
-36.9606
62
9
0
LINE
8
Undeflected
10
1232.39
20
-36.9606
11
1232.47
21
-36.4207
62
10
0
LINE
8
Undeflected
10
1232.27
20
-36.3918
11
1232.47
21
-36.421
62
1
0
LINE
8
Undeflected
10
1232.47
20
-36.4214
11
1232.47
21
-36.4209
62
2
0
LINE
8
Undeflected
10
1232.09
20
-38.8791
11
1232.17
21
-38.3878
62
3
0
LINE
8
Undeflected
10
1232.17
20
-38.3878
11
1232.25
21
-37.8963
62
4
0
LINE
8
Undeflected
10
1232.25
20
-37.8963
11
1232.32
21
-37.4047
62
5
0
LINE
8
Undeflected
10
1232.32
20
-37.4047
11
1232.4
21
-36.9131
62
6
0
LINE
8
Undeflected
10
1232.4
20
-36.9131
11
1232.47
21
-36.4214
62
7
0
LINE
8
Undeflected
10
1232.01
20
-38.8771
11
1232.08
21
-38.8771
62
8
0
LINE
8
Undeflected
10
1231.89
20
-38.8771
11
1231.99
21
-38.8771
62
9
0
LINE
8
Undeflected
10
1229.52
20
-41.5844
11
1229.59
21
-41.234
62
10
0
LINE
8
Undeflected
10
1229.59
20
-41.234
11
1229.79
21
-40.9388
62
1
0
LINE
8
Undeflected
10
1229.79
20
-40.9388
11
1230.09
21
-40.7456
62
2
0
LINE
8
Undeflected
10
1230.09
20
-40.7456
11
1230.36
21
-40.6867
62
3
0
LINE
8
Undeflected
10
1230.4
20
-40.6846
11
1230.06
21
-40.7617
62
4
0
LINE
8
Undeflected
10
1230.06
20
-40.7617
11
1229.76
21
-40.9688
62
5
0
LINE
8
Undeflected
10
1229.76
20
-40.9688
11
1229.58
21
-41.273
62
6
0
LINE
8
Undeflected
10
1229.58
20
-41.273
11
1229.52
21
-41.5364
62
7
0
LINE
8
Undeflected
10
1229.52
20
-41.5844
11
1229.33
21
-41.5844
62
8
0
LINE
8
Undeflected
10
1230.4
20
-40.4846
11
1230.4
21
-40.6841
62
9
0
LINE
8
Undeflected
10
1231.78
20
-40.6606
11
1231.78
21
-40.4748
62
10
0
LINE
8
Undeflected
10
1230.4
20
-40.6846
11
1231.78
21
-40.6606
62
1
0
LINE
8
Undeflected
10
1231.78
20
-40.6606
11
1231.59
21
-40.6638
62
2
0
LINE
8
Undeflected
10
1231.78
20
-40.6606
11
1232.05
21
-40.4523
62
3
0
LINE
8
Undeflected
10
1232.05
20
-40.4523
11
1232.07
21
-40.3603
62
4
0
LINE
8
Undeflected
10
1231.56
20
-40.6644
11
1231.78
21
-40.6606
62
5
0
LINE
8
Undeflected
10
1231.88
20
-40.3603
11
1232.08
21
-40.3603
62
6
0
LINE
8
Undeflected
10
1232.08
20
-40.3603
11
1232.07
21
-40.3603
62
7
0
LINE
8
Undeflected
10
1231.78
20
-40.6606
11
1232.05
21
-40.4876
62
8
0
LINE
8
Undeflected
10
1232.05
20
-40.4876
11
1232.08
21
-40.3603
62
9
0
LINE
8
Undeflected
10
1232.07
20
-40.3603
11
1232.07
21
-39.0237
62
10
0
LINE
8
Undeflected
10
1231.88
20
-39.0237
11
1232.08
21
-39.0237
62
1
0
LINE
8
Undeflected
10
1232.08
20
-39.0237
11
1232.07
21
-39.0237
62
2
0
LINE
8
Undeflected
10
1232.08
20
-40.3603
11
1232.08
21
-39.0237
62
3
0
LINE
8
Undeflected
10
1229.32
20
-43.65
11
1229.52
21
-43.65
62
4
0
LINE
8
Undeflected
10
1229.32
20
-43.95
11
1229.32
21
-43.7587
62
5
0
LINE
8
Undeflected
10
1229.32
20
-43.7587
11
1229.32
21
-43.6712
62
6
0
LINE
8
Undeflected
10
1198.22
20
-43.95
11
1198.22
21
-43.7587
62
7
0
LINE
8
Undeflected
10
1198.22
20
-43.7587
11
1198.22
21
-43.6712
62
8
0
LINE
8
Undeflected
10
1198.02
20
-43.75
11
1198.02
21
-43.6571
62
9
0
LINE
8
Undeflected
10
1198.02
20
-43.65
11
1198.02
21
-43.7497
62
10
0
LINE
8
Undeflected
10
1198.02
20
-17.6422
11
1198.02
21
-43.65
62
1
0
LINE
8
Undeflected
10
1198.02
20
-17.6082
11
1198.02
21
-17.6422
62
2
0
LINE
8
Undeflected
10
1198.02
20
-17.4082
11
1198.02
21
-17.6082
62
3
0
LINE
8
Undeflected
10
1198.02
20
-17.3846
11
1198.02
21
-17.4082
62
4
0
LINE
8
Undeflected
10
1198.02
20
-17.3846
11
1198.02
21
-17.2567
62
5
0
LINE
8
Undeflected
10
1198.02
20
-17.7
11
1198.02
21
-17.6663
62
6
0
LINE
8
Undeflected
10
1198.02
20
-17.6082
11
1198.02
21
-17.4369
62
7
0
LINE
8
Undeflected
10
1198.02
20
-17.7
11
1198.02
21
-17.7
62
8
0
LINE
8
Undeflected
10
1198.02
20
-17.4082
11
1198.02
21
-17.6082
62
9
0
LINE
8
Undeflected
10
1198.02
20
-17.6422
11
1198.02
21
-17.7
62
10
0
LINE
8
Undeflected
10
1198.02
20
-17.7
11
1198.02
21
-17.6422
62
1
0
LINE
8
Undeflected
10
1198.02
20
-17.6082
11
1198.02
21
-17.4082
62
2
0
LINE
8
Undeflected
10
1198.02
20
-17.7
11
1198.02
21
-17.7
62
3
0
LINE
8
Undeflected
10
1198.02
20
-17.4082
11
1198.02
21
-17.58
62
4
0
LINE
8
Undeflected
10
1198.02
20
-17.6422
11
1198.02
21
-17.6756
62
5
0
LINE
8
Undeflected
10
1198.02
20
-17.6082
11
1198.02
21
-17.4201
62
6
0
LINE
8
Undeflected
10
1198.02
20
-17.6422
11
1198.02
21
-17.6082
62
7
0
LINE
8
Undeflected
10
1198.02
20
-43.65
11
1198.02
21
-17.6422
62
8
0
LINE
8
Undeflected
10
1198.02
20
-18.9017
11
1198.02
21
-18.9017
62
9
0
LINE
8
Undeflected
10
1198.02
20
-18.9017
11
1198.02
21
-19.1086
62
10
0
LINE
8
Undeflected
10
1198.02
20
-19.1086
11
1198.02
21
-19.2017
62
1
0
LINE
8
Undeflected
10
1198.02
20
-19.2017
11
1198.02
21
-20.1
62
2
0
LINE
8
Undeflected
10
1198.02
20
-23.1
11
1198.02
21
-20.1
62
3
0
LINE
8
Undeflected
10
1198.02
20
-23.1
11
1198.02
21
-35.7483
62
4
0
LINE
8
Undeflected
10
1198.02
20
-35.7483
11
1198.02
21
-36.0336
62
5
0
LINE
8
Undeflected
10
1198.02
20
-36.0336
11
1198.02
21
-36.0483
62
6
0
LINE
8
Undeflected
10
1198.02
20
-36.0483
11
1198.02
21
-35.8414
62
7
0
LINE
8
Undeflected
10
1198.02
20
-35.8414
11
1198.02
21
-35.7483
62
8
0
LINE
8
Undeflected
10
1198.02
20
-35.7483
11
1198.02
21
-19.2017
62
9
0
LINE
8
Undeflected
10
1198.02
20
-19.2017
11
1198.02
21
-18.9164
62
10
0
LINE
8
Undeflected
10
1198.02
20
-18.9164
11
1198.02
21
-18.9017
62
1
0
LINE
8
Undeflected
10
1198.02
20
-18.9017
11
1198.02
21
-18.9017
62
2
0
LINE
8
Undeflected
10
1198.02
20
-18.9017
11
1198.02
21
-19.1
62
3
0
LINE
8
Undeflected
10
1198.02
20
-19.1
11
1198.02
21
-18.9017
62
4
0
LINE
8
Undeflected
10
1198.02
20
-35.7483
11
1198.02
21
-36.0336
62
5
0
LINE
8
Undeflected
10
1198.02
20
-36.0336
11
1198.02
21
-36.0483
62
6
0
LINE
8
Undeflected
10
1198.02
20
-36.0483
11
1198.02
21
-35.8414
62
7
0
LINE
8
Undeflected
10
1198.02
20
-35.8414
11
1198.02
21
-35.7483
62
8
0
LINE
8
Undeflected
10
1198.02
20
-35.7483
11
1198.02
21
-19.2017
62
9
0
LINE
8
Undeflected
10
1198.02
20
-19.2017
11
1198.02
21
-18.9164
62
10
0
LINE
8
Undeflected
10
1198.02
20
-18.9164
11
1198.02
21
-18.9017
62
1
0
LINE
8
Undeflected
10
1198.02
20
-18.9017
11
1198.02
21
-19.1086
62
2
0
LINE
8
Undeflected
10
1198.02
20
-19.1086
11
1198.02
21
-19.2017
62
3
0
LINE
8
Undeflected
10
1198.02
20
-19.2017
11
1198.02
21
-35.7483
62
4
0
LINE
8
Undeflected
10
1198.02
20
-20.1
11
1198.02
21
-19.2017
62
5
0
LINE
8
Undeflected
10
1198.02
20
-19.2017
11
1198.02
21
-18.9164
62
6
0
LINE
8
Undeflected
10
1198.02
20
-18.9164
11
1198.02
21
-18.9017
62
7
0
LINE
8
Undeflected
10
1198.02
20
-18.9017
11
1198.02
21
-19.1086
62
8
0
LINE
8
Undeflected
10
1198.02
20
-19.1086
11
1198.02
21
-19.2017
62
9
0
LINE
8
Undeflected
10
1198.02
20
-19.2017
11
1198.02
21
-20.1
62
10
0
LINE
8
Undeflected
10
1198.02
20
-23.1
11
1198.02
21
-35.7483
62
1
0
LINE
8
Undeflected
10
1198.02
20
-35.7483
11
1198.02
21
-36.0336
62
2
0
LINE
8
Undeflected
10
1198.02
20
-36.0336
11
1198.02
21
-36.0483
62
3
0
LINE
8
Undeflected
10
1198.02
20
-36.0483
11
1198.02
21
-35.8414
62
4
0
LINE
8
Undeflected
10
1198.02
20
-35.8414
11
1198.02
21
-35.7483
62
5
0
LINE
8
Undeflected
10
1198.02
20
-35.7483
11
1198.02
21
-23.1
62
6
0
LINE
8
Undeflected
10
1198.02
20
-42.2492
11
1198.02
21
-37.1517
62
7
0
LINE
8
Undeflected
10
1198.02
20
-37.1517
11
1198.02
21
-36.8667
62
8
0
LINE
8
Undeflected
10
1198.02
20
-36.8667
11
1198.02
21
-36.8517
62
9
0
LINE
8
Undeflected
10
1198.02
20
-36.8517
11
1198.02
21
-37.0577
62
10
0
LINE
8
Undeflected
10
1198.02
20
-37.0577
11
1198.02
21
-37.1517
62
1
0
LINE
8
Undeflected
10
1198.02
20
-37.1517
11
1198.02
21
-42.2492
62
2
0
LINE
8
Undeflected
10
1198.02
20
-42.2492
11
1198.02
21
-42.5341
62
3
0
LINE
8
Undeflected
10
1198.02
20
-42.5341
11
1198.02
21
-42.5491
62
4
0
LINE
8
Undeflected
10
1198.02
20
-42.5491
11
1198.02
21
-42.3431
62
5
0
LINE
8
Undeflected
10
1198.02
20
-42.3431
11
1198.02
21
-42.2492
62
6
0
LINE
8
Undeflected
10
1198.02
20
-42.2492
11
1198.02
21
-37.1517
62
7
0
LINE
8
Undeflected
10
1198.02
20
-37.1517
11
1198.02
21
-36.8667
62
8
0
LINE
8
Undeflected
10
1198.02
20
-36.8667
11
1198.02
21
-36.8517
62
9
0
LINE
8
Undeflected
10
1198.02
20
-36.8517
11
1198.02
21
-37.0577
62
10
0
LINE
8
Undeflected
10
1198.02
20
-37.0577
11
1198.02
21
-37.1517
62
1
0
LINE
8
Undeflected
10
1198.02
20
-37.1517
11
1198.02
21
-42.2492
62
2
0
LINE
8
Undeflected
10
1198.02
20
-42.2492
11
1198.02
21
-42.5341
62
3
0
LINE
8
Undeflected
10
1198.02
20
-42.5341
11
1198.02
21
-42.5491
62
4
0
LINE
8
Undeflected
10
1198.02
20
-42.5491
11
1198.02
21
-42.3431
62
5
0
LINE
8
Undeflected
10
1198.02
20
-42.3431
11
1198.02
21
-42.2492
62
6
0
LINE
8
Undeflected
10
1198.02
20
-42.5491
11
1198.02
21
-42.3431
62
7
0
LINE
8
Undeflected
10
1198.02
20
-42.3431
11
1198.02
21
-42.2492
62
8
0
LINE
8
Undeflected
10
1198.02
20
-42.2492
11
1198.02
21
-37.1517
62
9
0
LINE
8
Undeflected
10
1198.02
20
-37.1517
11
1198.02
21
-36.8667
62
10
0
LINE
8
Undeflected
10
1198.02
20
-36.8667
11
1198.02
21
-36.8517
62
1
0
LINE
8
Undeflected
10
1198.02
20
-36.8517
11
1198.02
21
-37.0577
62
2
0
LINE
8
Undeflected
10
1198.02
20
-37.0577
11
1198.02
21
-37.1517
62
3
0
LINE
8
Undeflected
10
1198.02
20
-37.1517
11
1198.02
21
-42.2492
62
4
0
LINE
8
Undeflected
10
1198.02
20
-42.2492
11
1198.02
21
-42.5341
62
5
0
LINE
8
Undeflected
10
1198.02
20
-42.5341
11
1198.02
21
-42.5491
62
6
0
LINE
8
Undeflected
10
1198.02
20
-42.5491
11
1198.02
21
-42.3431
62
7
0
LINE
8
Undeflected
10
1198.02
20
-42.3431
11
1198.02
21
-42.2492
62
8
0
LINE
8
Undeflected
10
1198.02
20
-42.2492
11
1198.02
21
-37.1517
62
9
0
LINE
8
Undeflected
10
1198.02
20
-37.1517
11
1198.02
21
-36.8667
62
10
0
LINE
8
Undeflected
10
1198.02
20
-36.8667
11
1198.02
21
-36.8517
62
1
0
LINE
8
Undeflected
10
1198.02
20
-36.8517
11
1198.02
21
-37.0577
62
2
0
LINE
8
Undeflected
10
1198.02
20
-37.0577
11
1198.02
21
-37.1517
62
3
0
LINE
8
Undeflected
10
1198.02
20
-37.1517
11
1198.02
21
-42.2492
62
4
0
LINE
8
Undeflected
10
1198.02
20
-42.2492
11
1198.02
21
-42.5341
62
5
0
LINE
8
Undeflected
10
1198.02
20
-42.5341
11
1198.02
21
-42.5491
62
6
0
LINE
8
Undeflected
10
1198.02
20
-17.6428
11
1198.2
21
-17.8223
62
7
0
LINE
8
Undeflected
10
1202.51
20
-17.8423
11
1202.51
21
-17.7524
62
8
0
LINE
8
Undeflected
10
1202.51
20
-17.6706
11
1202.51
21
-17.6428
62
9
0
LINE
8
Undeflected
10
1202.91
20
-12.8726
11
1202.77
21
-13.0139
62
10
0
LINE
8
Undeflected
10
1202.74
20
-17.4423
11
1202.8
21
-17.4422
62
1
0
LINE
8
Undeflected
10
1202.68
20
-17.4082
11
1202.71
21
-17.4422
62
2
0
LINE
8
Undeflected
10
1202.68
20
-16.4582
11
1202.68
21
-17.4082
62
3
0
LINE
8
Undeflected
10
1202.52
20
-13.0731
11
1202.63
21
-12.9645
62
4
0
LINE
8
Undeflected
10
1202.52
20
-16.4734
11
1202.52
21
-13.9868
62
5
0
LINE
8
Undeflected
10
1202.52
20
-13.9868
11
1202.52
21
-13.6428
62
6
0
LINE
8
Undeflected
10
1202.52
20
-13.6428
11
1202.52
21
-13.4875
62
7
0
LINE
8
Undeflected
10
1202.52
20
-13.4875
11
1202.52
21
-13.0731
62
8
0
LINE
8
Undeflected
10
1202.52
20
15.2579
11
1202.52
21
15.4184
62
9
0
LINE
8
Undeflected
10
1202.52
20
15.4184
11
1202.52
21
15.7561
62
10
0
LINE
8
Undeflected
10
1202.52
20
15.7561
11
1202.52
21
15.9
62
1
0
LINE
8
Undeflected
10
1202.52
20
15.9
11
1202.52
21
15.7561
62
2
0
LINE
8
Undeflected
10
1202.52
20
15.7561
11
1202.52
21
15.4184
62
3
0
LINE
8
Undeflected
10
1202.52
20
15.4184
11
1202.52
21
15.2579
62
4
0
LINE
8
Undeflected
10
1202.52
20
15.2579
11
1202.52
21
14.237
62
5
0
LINE
8
Undeflected
10
1202.52
20
14.237
11
1202.52
21
-13.0731
62
6
0
LINE
8
Undeflected
10
1202.52
20
-13.0731
11
1202.52
21
-13.4875
62
7
0
LINE
8
Undeflected
10
1202.52
20
-13.4875
11
1202.52
21
-13.6427
62
8
0
LINE
8
Undeflected
10
1202.52
20
-13.6427
11
1202.52
21
-13.9868
62
9
0
LINE
8
Undeflected
10
1202.52
20
-13.9868
11
1202.52
21
-16.4734
62
10
0
LINE
8
Undeflected
10
1202.52
20
-17.3
11
1202.52
21
-16.4734
62
1
0
LINE
8
Undeflected
10
1202.52
20
-17.3
11
1202.52
21
-17.5
62
2
0
LINE
8
Undeflected
10
1202.52
20
-17.5
11
1202.52
21
-17.4
62
3
0
LINE
8
Undeflected
10
1202.52
20
-17.4
11
1202.52
21
-17.5
62
4
0
LINE
8
Undeflected
10
1202.52
20
-17.5
11
1202.52
21
-17.3
62
5
0
LINE
8
Undeflected
10
1202.52
20
-4
11
1202.52
21
-3.97502
62
6
0
LINE
8
Undeflected
10
1202.52
20
-3.97502
11
1202.52
21
-3.90033
62
7
0
LINE
8
Undeflected
10
1202.52
20
-3.90033
11
1202.52
21
-3.77668
62
8
0
LINE
8
Undeflected
10
1202.52
20
-3.77668
11
1202.52
21
-3.6053
62
9
0
LINE
8
Undeflected
10
1202.52
20
-3.6053
11
1202.52
21
-3.38791
62
10
0
LINE
8
Undeflected
10
1202.52
20
-3.38791
11
1202.52
21
-3.12668
62
1
0
LINE
8
Undeflected
10
1202.52
20
-3.12668
11
1202.52
21
-2.82421
62
2
0
LINE
8
Undeflected
10
1202.52
20
-2.82421
11
1202.52
21
-2.48353
62
3
0
LINE
8
Undeflected
10
1202.52
20
-2.48353
11
1202.52
21
-2.10805
62
4
0
LINE
8
Undeflected
10
1202.52
20
-2.10805
11
1202.52
21
-1.70151
62
5
0
LINE
8
Undeflected
10
1202.52
20
-1.70151
11
1202.52
21
-1.26798
62
6
0
LINE
8
Undeflected
10
1202.52
20
-1.26798
11
1202.52
21
-0.811789
62
7
0
LINE
8
Undeflected
10
1202.52
20
-0.811789
11
1202.52
21
-0.337494
62
8
0
LINE
8
Undeflected
10
1202.52
20
-0.337494
11
1202.52
21
0.150164
62
9
0
LINE
8
Undeflected
10
1202.52
20
0.150164
11
1202.52
21
0.646314
62
10
0
LINE
8
Undeflected
10
1202.52
20
0.646314
11
1202.52
21
1.146
62
1
0
LINE
8
Undeflected
10
1202.52
20
1.146
11
1202.52
21
1.64422
62
2
0
LINE
8
Undeflected
10
1202.52
20
1.64422
11
1202.52
21
2.13601
62
3
0
LINE
8
Undeflected
10
1202.52
20
2.13601
11
1202.52
21
2.61645
62
4
0
LINE
8
Undeflected
10
1202.52
20
2.61645
11
1202.52
21
3.08073
62
5
0
LINE
8
Undeflected
10
1202.52
20
3.08073
11
1202.52
21
3.52423
62
6
0
LINE
8
Undeflected
10
1202.52
20
3.52423
11
1202.52
21
3.94251
62
7
0
LINE
8
Undeflected
10
1202.52
20
3.94251
11
1202.52
21
4.33138
62
8
0
LINE
8
Undeflected
10
1202.52
20
4.33138
11
1202.52
21
4.68697
62
9
0
LINE
8
Undeflected
10
1202.52
20
4.68697
11
1202.52
21
5.00572
62
10
0
LINE
8
Undeflected
10
1202.52
20
5.00572
11
1202.52
21
5.28444
62
1
0
LINE
8
Undeflected
10
1202.52
20
5.28444
11
1202.52
21
5.52036
62
2
0
LINE
8
Undeflected
10
1202.52
20
5.52036
11
1202.52
21
5.71111
62
3
0
LINE
8
Undeflected
10
1202.52
20
5.71111
11
1202.52
21
5.85479
62
4
0
LINE
8
Undeflected
10
1202.52
20
5.85479
11
1202.52
21
5.94996
62
5
0
LINE
8
Undeflected
10
1202.52
20
5.94996
11
1202.52
21
5.99568
62
6
0
LINE
8
Undeflected
10
1203.18
20
14.2367
11
1203.18
21
20.5121
62
7
0
LINE
8
Undeflected
10
1202.97
20
15.7582
11
1202.97
21
15.5433
62
8
0
LINE
8
Undeflected
10
1202.98
20
15.2779
11
1202.98
21
15.2626
62
9
0
LINE
8
Undeflected
10
1203.18
20
14.2367
11
1202.98
21
15.26
62
10
0
LINE
8
Undeflected
10
1202.52
20
20.331
11
1202.32
21
20.3275
62
1
0
LINE
8
Undeflected
10
1202.32
20
20.4296
11
1202.48
21
20.4281
62
2
0
LINE
8
Undeflected
10
1198.21
20
16.3522
11
1198.03
21
16.5072
62
3
0
LINE
8
Undeflected
10
1201.52
20
20.25
11
1202.92
21
20.25
62
4
0
LINE
8
Undeflected
10
1202.92
20
20.25
11
1201.52
21
20.25
62
5
0
LINE
8
Undeflected
10
1198.21
20
17.8033
11
1198.21
21
16.5096
62
6
0
LINE
8
Undeflected
10
1198.22
20
16.5096
11
1198.21
21
16.5096
62
7
0
LINE
8
Undeflected
10
1200.73
20
16.5073
11
1201.38
21
18.3003
62
8
0
LINE
8
Undeflected
10
1201.38
20
18.3003
11
1201.52
21
20.25
62
9
0
LINE
8
Undeflected
10
1198.02
20
16.5096
11
1198.21
21
16.5096
62
10
0
LINE
8
Undeflected
10
1198.22
20
16.2097
11
1198.02
21
16.3955
62
1
0
LINE
8
Undeflected
10
1198.22
20
16.2097
11
1198.22
21
16.3519
62
2
0
LINE
8
Undeflected
10
1198.02
20
16.5519
11
1198.21
21
16.3525
62
3
0
LINE
8
Undeflected
10
1198.22
20
20.1623
11
1198.02
21
20.1623
62
4
0
LINE
8
Undeflected
10
1198.22
20
20.4622
11
1198.22
21
20.2661
62
5
0
LINE
8
Undeflected
10
1198.22
20
20.2661
11
1198.22
21
20.1783
62
6
0
LINE
8
Undeflected
10
1198.02
20
20.6622
11
1198.21
21
20.4627
62
7
0
LINE
8
Undeflected
10
1198.02
20
20.7121
11
1198.21
21
20.5126
62
8
0
LINE
8
Undeflected
10
1198.22
20
20.5121
11
1198.22
21
20.4622
62
9
0
LINE
8
Undeflected
10
1202.32
20
20.3275
11
1201.49
21
20.3272
62
10
0
LINE
8
Undeflected
10
1202.32
20
20.3275
11
1202.52
21
20.331
62
1
0
LINE
8
Undeflected
10
1202.52
20
20.357
11
1202.52
21
20.331
62
2
0
LINE
8
Undeflected
10
1202.52
20
20.357
11
1202.75
21
20.3656
62
3
0
LINE
8
Undeflected
10
1202.75
20
20.3656
11
1202.86
21
20.3742
62
4
0
LINE
8
Undeflected
10
1202.86
20
20.3742
11
1202.87
21
20.3785
62
5
0
LINE
8
Undeflected
10
1202.87
20
20.3785
11
1202.82
21
20.3872
62
6
0
LINE
8
Undeflected
10
1202.82
20
20.3872
11
1202.65
21
20.3958
62
7
0
LINE
8
Undeflected
10
1202.52
20
20.4261
11
1202.52
21
20.4001
62
8
0
LINE
8
Undeflected
10
1202.52
20
20.4261
11
1202.32
21
20.4296
62
9
0
LINE
8
Undeflected
10
1202.32
20
20.4296
11
1201.4
21
20.4299
62
10
0
LINE
8
Undeflected
10
1201.37
20
20.4622
11
1201.4
21
20.4299
62
1
0
LINE
8
Undeflected
10
1201.37
20
20.4622
11
1198.22
21
20.4622
62
2
0
LINE
8
Undeflected
10
1203.18
20
20.5121
11
1198.22
21
20.5121
62
3
0
LINE
8
Undeflected
10
1203.18
20
20.5121
11
1202.97
21
20.3
62
4
0
LINE
8
Undeflected
10
1202.97
20
20.3
11
1201.52
21
20.3013
62
5
0
LINE
8
Undeflected
10
1201.49
20
20.3272
11
1201.52
21
20.3013
62
6
0
LINE
8
Undeflected
10
1202.32
20
20.4296
11
1202.32
21
20.3275
62
7
0
LINE
8
Undeflected
10
1201.49
20
20.3272
11
1201.35
21
18.3057
62
8
0
LINE
8
Undeflected
10
1201.35
20
18.3057
11
1201.3
21
18.1572
62
9
0
LINE
8
Undeflected
10
1201.3
20
18.1572
11
1201.26
21
18.1565
62
10
0
LINE
8
Undeflected
10
1198.12
20
18.1017
11
1198.12
21
20.1623
62
1
0
LINE
8
Undeflected
10
1198.12
20
20.5399
11
1198.12
21
20.7121
62
2
0
LINE
8
Undeflected
10
1202.52
20
20.357
11
1202.52
21
20.4001
62
3
0
LINE
8
Undeflected
10
1198.02
20
21.7018
11
1198.02
21
21.6438
62
4
0
LINE
8
Undeflected
10
1198.02
20
21.6438
11
1198.02
21
20.8369
62
5
0
LINE
8
Undeflected
10
1198.12
20
20.7121
11
1198.12
21
20.5399
62
6
0
LINE
8
Undeflected
10
1198.12
20
20.1623
11
1198.12
21
18.1017
62
7
0
LINE
8
Undeflected
10
1198.02
20
18.1017
11
1198.11
21
18.1017
62
8
0
LINE
8
Undeflected
10
1198.12
20
17.8017
11
1198.12
21
18.009
62
9
0
LINE
8
Undeflected
10
1198.12
20
18.009
11
1198.12
21
18.1017
62
10
0
LINE
8
Undeflected
10
1201.3
20
18.1572
11
1201.2
21
17.8919
62
1
0
LINE
8
Undeflected
10
1201.2
20
17.8919
11
1201.18
21
17.8552
62
2
0
LINE
8
Undeflected
10
1198.12
20
17.8017
11
1198.22
21
17.8035
62
3
0
LINE
8
Undeflected
10
1201.15
20
17.8546
11
1201.18
21
17.8552
62
4
0
LINE
8
Undeflected
10
1200.61
20
16.6519
11
1200.51
21
16.3704
62
5
0
LINE
8
Undeflected
10
1200.51
20
16.3704
11
1200.51
21
16.3519
62
6
0
LINE
8
Undeflected
10
1201.22
20
18.333
11
1200.61
21
16.6519
62
7
0
LINE
8
Undeflected
10
1201.22
20
18.333
11
1201.25
21
18.3273
62
8
0
LINE
8
Undeflected
10
1201.19
20
18.1553
11
1201.25
21
18.3273
62
9
0
LINE
8
Undeflected
10
1201.19
20
18.1553
11
1201.1
21
17.89
62
10
0
LINE
8
Undeflected
10
1201.1
20
17.89
11
1201.08
21
17.8535
62
1
0
LINE
8
Undeflected
10
1201.12
20
17.8541
11
1201.08
21
17.8535
62
2
0
LINE
8
Undeflected
10
1201.29
20
18.3193
11
1201.12
21
17.8541
62
3
0
LINE
8
Undeflected
10
1201.29
20
18.3193
11
1201.32
21
18.3136
62
4
0
LINE
8
Undeflected
10
1201.15
20
17.8546
11
1201.32
21
18.3136
62
5
0
LINE
8
Undeflected
10
1201.18
20
17.8552
11
1201.15
21
17.8546
62
6
0
LINE
8
Undeflected
10
1201.35
20
18.3057
11
1201.38
21
18.3003
62
7
0
LINE
8
Undeflected
10
1200.61
20
16.2074
11
1200.67
21
16.3666
62
8
0
LINE
8
Undeflected
10
1200.67
20
16.3666
11
1200.71
21
16.4565
62
9
0
LINE
8
Undeflected
10
1200.51
20
16.3519
11
1200.61
21
16.2075
62
10
0
LINE
8
Undeflected
10
1200.51
20
16.3519
11
1198.22
21
16.3519
62
1
0
LINE
8
Undeflected
10
1198.22
20
16.6519
11
1200.61
21
16.6519
62
2
0
LINE
8
Undeflected
10
1198.22
20
16.3519
11
1198.22
21
16.5481
62
3
0
LINE
8
Undeflected
10
1198.22
20
16.5481
11
1198.22
21
16.6359
62
4
0
LINE
8
Undeflected
10
1198.22
20
16.6519
11
1198.22
21
20.1623
62
5
0
LINE
8
Undeflected
10
1198.22
20
20.1623
11
1201.35
21
20.1623
62
6
0
LINE
8
Undeflected
10
1201.35
20
20.1623
11
1201.22
21
18.333
62
7
0
LINE
8
Undeflected
10
1201.35
20
20.1623
11
1201.37
21
20.4443
62
8
0
LINE
8
Undeflected
10
1201.37
20
20.4443
11
1201.37
21
20.4622
62
9
0
LINE
8
Undeflected
10
1201.25
20
18.3273
11
1201.4
21
20.4299
62
10
0
LINE
8
Undeflected
10
1198.12
20
18.1017
11
1198.22
21
18.1034
62
1
0
LINE
8
Undeflected
10
1201.12
20
17.8541
11
1201.08
21
17.8535
62
2
0
LINE
8
Undeflected
10
1198.22
20
17.8035
11
1198.12
21
17.8017
62
3
0
LINE
8
Undeflected
10
1201.32
20
18.3136
11
1201.38
21
19.2
62
4
0
LINE
8
Undeflected
10
1201.35
20
19.2
11
1201.38
21
19.2
62
5
0
LINE
8
Undeflected
10
1201.31
20
19.2
11
1201.35
21
19.2
62
6
0
LINE
8
Undeflected
10
1201.35
20
19.2
11
1201.29
21
18.3193
62
7
0
LINE
8
Undeflected
10
1200.61
20
16.2075
11
1198.22
21
16.2097
62
8
0
LINE
8
Undeflected
10
1198.21
20
16.5096
11
1198.21
21
16.3721
62
9
0
LINE
8
Undeflected
10
1200.61
20
16.2074
11
1198.22
21
16.2096
62
10
0
LINE
8
Undeflected
10
1201.52
20
20.3013
11
1201.52
21
20.25
62
1
0
LINE
8
Undeflected
10
1202.52
20
15.2579
11
1202.98
21
15.26
62
2
0
LINE
8
Undeflected
10
1202.98
20
15.26
11
1203.18
21
14.2364
62
3
0
LINE
8
Undeflected
10
1203.18
20
14.2364
11
1202.52
21
14.2355
62
4
0
LINE
8
Undeflected
10
1202.52
20
14.237
11
1202.52
21
14.2355
62
5
0
LINE
8
Undeflected
10
1203.18
20
20.5121
11
1203.18
21
14.2364
62
6
0
LINE
8
Undeflected
10
1202.97
20
15.7582
11
1202.97
21
20.3
62
7
0
LINE
8
Undeflected
10
1202.98
20
15.26
11
1202.97
21
15.4204
62
8
0
LINE
8
Undeflected
10
1202.97
20
15.4204
11
1202.97
21
15.7582
62
9
0
LINE
8
Undeflected
10
1203.18
20
20.5121
11
1203.38
21
20.7121
62
10
0
LINE
8
Undeflected
10
1203.18
20
14.2364
11
1203.38
21
14.0362
62
1
0
LINE
8
Undeflected
10
1202.52
20
14.2355
11
1202.72
21
14.0362
62
2
0
LINE
8
Undeflected
10
1202.72
20
-12.8726
11
1202.52
21
-13.0695
62
3
0
LINE
8
Undeflected
10
1202.52
20
-13.0695
11
1202.52
21
-13.0731
62
4
0
LINE
8
Undeflected
10
1202.71
20
-13.0728
11
1202.91
21
-12.8726
62
5
0
LINE
8
Undeflected
10
1202.71
20
-13.0728
11
1202.71
21
-17.4424
62
6
0
LINE
8
Undeflected
10
1202.91
20
-17.4423
11
1202.71
21
-17.4424
62
7
0
LINE
8
Undeflected
10
1202.57
20
-16.3459
11
1202.57
21
-13.987
62
8
0
LINE
8
Undeflected
10
1202.68
20
-16.4582
11
1202.57
21
-16.3459
62
9
0
LINE
8
Undeflected
10
1202.68
20
-17.4082
11
1202.68
21
-16.4582
62
10
0
LINE
8
Undeflected
10
1202.71
20
-17.4424
11
1202.68
21
-17.4082
62
1
0
LINE
8
Undeflected
10
1202.57
20
-13.4876
11
1202.71
21
-13.0728
62
2
0
LINE
8
Undeflected
10
1202.57
20
-13.987
11
1202.57
21
-13.6428
62
3
0
LINE
8
Undeflected
10
1202.57
20
-13.6428
11
1202.57
21
-13.4876
62
4
0
LINE
8
Undeflected
10
1202.51
20
-17.6423
11
1198.02
21
-17.6422
62
5
0
LINE
8
Undeflected
10
1198.02
20
-17.6422
11
1198.22
21
-17.8423
62
6
0
LINE
8
Undeflected
10
1202.51
20
-17.6423
11
1202.51
21
-17.8423
62
7
0
LINE
8
Undeflected
10
1198.22
20
-43.65
11
1198.02
21
-43.65
62
8
0
LINE
8
Undeflected
10
1202.48
20
-17.6082
11
1202.51
21
-17.6423
62
9
0
LINE
8
Undeflected
10
1198.02
20
-17.6082
11
1202.48
21
-17.6082
62
10
0
LINE
8
Undeflected
10
1201
20
-15.7429
11
1200.81
21
-15.6047
62
1
0
LINE
8
Undeflected
10
1201
20
-15.7429
11
1201.25
21
-16.5166
62
2
0
LINE
8
Undeflected
10
1201.25
20
-16.5166
11
1201.44
21
-16.6547
62
3
0
LINE
8
Undeflected
10
1201.44
20
-16.6547
11
1202.48
21
-16.6547
62
4
0
LINE
8
Undeflected
10
1202.48
20
-16.6547
11
1202.48
21
-17.4082
62
5
0
LINE
8
Undeflected
10
1202.48
20
-17.4082
11
1198.02
21
-17.4082
62
6
0
LINE
8
Undeflected
10
1198.02
20
-17.3846
11
1200.51
21
-15.6409
62
7
0
LINE
8
Undeflected
10
1200.51
20
-15.6409
11
1200.62
21
-15.6047
62
8
0
LINE
8
Undeflected
10
1200.81
20
-15.6047
11
1200.62
21
-15.6047
62
9
0
LINE
8
Undeflected
10
1200.89
20
-15.4974
11
1200.81
21
-15.6047
62
10
0
LINE
8
Undeflected
10
1201
20
-15.7429
11
1201.08
21
-15.6354
62
1
0
LINE
8
Undeflected
10
1200.89
20
-15.4974
11
1201.08
21
-15.6354
62
2
0
LINE
8
Undeflected
10
1200.89
20
-15.4974
11
1200.59
21
-15.4976
62
3
0
LINE
8
Undeflected
10
1200.59
20
-15.4976
11
1200.48
21
-15.5339
62
4
0
LINE
8
Undeflected
10
1200.48
20
-15.5339
11
1198.02
21
-17.2567
62
5
0
LINE
8
Undeflected
10
1202.48
20
-17.3
11
1202.52
21
-17.3
62
6
0
LINE
8
Undeflected
10
1202.52
20
-16.4734
11
1202.37
21
-16.546
62
7
0
LINE
8
Undeflected
10
1202.37
20
-16.546
11
1201.52
21
-16.5468
62
8
0
LINE
8
Undeflected
10
1201.52
20
-16.5468
11
1201.33
21
-16.4088
62
9
0
LINE
8
Undeflected
10
1201.33
20
-16.4088
11
1201.08
21
-15.6354
62
10
0
LINE
8
Undeflected
10
1200.62
20
-15.6047
11
1200.59
21
-15.4976
62
1
0
LINE
8
Undeflected
10
1200.48
20
-15.5339
11
1200.51
21
-15.6409
62
2
0
LINE
8
Undeflected
10
1202.52
20
-17.5
11
1198.22
21
-17.5
62
3
0
LINE
8
Undeflected
10
1198.22
20
-17.5
11
1198.22
21
-17.5
62
4
0
LINE
8
Undeflected
10
1198.22
20
-17.5
11
1202.52
21
-17.5
62
5
0
LINE
8
Undeflected
10
1202.52
20
-17.4
11
1202.48
21
-17.4
62
6
0
LINE
8
Undeflected
10
1202.48
20
-17.4
11
1202.52
21
-17.4
62
7
0
LINE
8
Undeflected
10
1201.33
20
-16.4088
11
1201.52
21
-16.5468
62
8
0
LINE
8
Undeflected
10
1202.48
20
-17.6082
11
1198.02
21
-17.6082
62
9
0
LINE
8
Undeflected
10
1198.22
20
-17.5
11
1202.52
21
-17.5
62
10
0
LINE
8
Undeflected
10
1202.52
20
-17.5
11
1198.22
21
-17.5
62
1
0
LINE
8
Undeflected
10
1198.22
20
-17.5
11
1198.22
21
-17.5
62
2
0
LINE
8
Undeflected
10
1201.33
20
-16.4088
11
1201.25
21
-16.5166
62
3
0
LINE
8
Undeflected
10
1198.22
20
20.5719
11
1198.22
21
20.6968
62
4
0
LINE
8
Undeflected
10
1198.22
20
20.5121
11
1198.22
21
20.5614
62
5
0
LINE
8
Undeflected
10
1202.52
20
15.9
11
1202.92
21
16.3
62
6
0
LINE
8
Undeflected
10
1202.92
20
16.3
11
1202.52
21
15.9
62
7
0
LINE
8
Undeflected
10
1202.92
20
20.25
11
1202.92
21
16.3
62
8
0
LINE
8
Undeflected
10
1202.92
20
16.3
11
1202.92
21
20.25
62
9
0
LINE
8
Undeflected
10
1200.61
20
16.2074
11
1198.22
21
16.2096
62
10
0
LINE
8
Undeflected
10
1203.32
20
45.95
11
1203.5
21
45.95
62
1
0
LINE
8
Undeflected
10
1205.93
20
-43.95
11
1205.94
21
-43.95
62
2
0
LINE
8
Undeflected
10
1229.52
20
43.5822
11
1229.52
21
43.5842
62
3
0
LINE
8
Undeflected
10
1198.88
20
45.6813
11
1199.06
21
45.6522
62
4
0
LINE
8
Undeflected
10
1204.68
20
-3.69654
11
1204.68
21
-3.49704
62
5
0
LINE
8
Undeflected
10
1211.24
20
-3.49657
11
1211.24
21
-3.68588
62
6
0
LINE
8
Undeflected
10
1211.24
20
-3.49657
11
1204.68
21
-3.49657
62
7
0
LINE
8
Undeflected
10
1210.44
20
-3.48248
11
1204.69
21
-3.48248
62
8
0
LINE
8
Undeflected
10
1210.44
20
-3.48248
11
1211.24
21
-3.49657
62
9
0
LINE
8
Undeflected
10
1204.68
20
-3.49657
11
1204.69
21
-3.48248
62
10
0
LINE
8
Undeflected
10
1204.69
20
-3.48248
11
1204.69
21
-3.29318
62
1
0
LINE
8
Undeflected
10
1210.44
20
-3.28251
11
1204.69
21
-3.28193
62
2
0
LINE
8
Undeflected
10
1210.44
20
-3.28252
11
1210.44
21
-3.48201
62
3
0
LINE
8
Undeflected
10
1204.28
20
-2.2034
11
1204.48
21
-2.2034
62
4
0
LINE
8
Undeflected
10
1204.48
20
-3.2966
11
1204.28
21
-3.2966
62
5
0
LINE
8
Undeflected
10
1204.48
20
-2.2034
11
1204.48
21
-3.2966
62
6
0
LINE
8
Undeflected
10
1211.24
20
-1.80346
11
1211.24
21
-2.00296
62
7
0
LINE
8
Undeflected
10
1204.68
20
-2.00343
11
1204.68
21
-1.80346
62
8
0
LINE
8
Undeflected
10
1204.68
20
-2.00343
11
1211.24
21
-2.00343
62
9
0
LINE
8
Undeflected
10
1204.69
20
-2.01752
11
1210.44
21
-2.01752
62
10
0
LINE
8
Undeflected
10
1204.69
20
-2.01752
11
1204.68
21
-2.00343
62
1
0
LINE
8
Undeflected
10
1211.24
20
-2.00343
11
1210.44
21
-2.01752
62
2
0
LINE
8
Undeflected
10
1210.44
20
-2.01752
11
1210.44
21
-2.09592
62
3
0
LINE
8
Undeflected
10
1210.44
20
-2.10393
11
1210.44
21
-2.21672
62
4
0
LINE
8
Undeflected
10
1204.69
20
-2.21749
11
1210.44
21
-2.21749
62
5
0
LINE
8
Undeflected
10
1204.69
20
-2.21749
11
1204.69
21
-2.01799
62
6
0
LINE
8
Undeflected
10
1210.58
20
-2.21749
11
1210.54
21
-2.08865
62
7
0
LINE
8
Undeflected
10
1210.54
20
-2.07695
11
1210.45
21
-2.01834
62
8
0
LINE
8
Undeflected
10
1211.24
20
-2.00343
11
1211.31
21
-2.00525
62
9
0
LINE
8
Undeflected
10
1211.31
20
-2.00525
11
1211.43
21
-2.20053
62
10
0
LINE
8
Undeflected
10
1210.58
20
-2.21749
11
1211.43
21
-2.20267
62
1
0
LINE
8
Undeflected
10
1210.58
20
-2.21749
11
1210.58
21
-3.28251
62
2
0
LINE
8
Undeflected
10
1211.43
20
-2.20267
11
1211.43
21
-3.29733
62
3
0
LINE
8
Undeflected
10
1211.43
20
-3.29733
11
1210.58
21
-3.28251
62
4
0
LINE
8
Undeflected
10
1210.58
20
-3.28251
11
1210.45
21
-3.28251
62
5
0
LINE
8
Undeflected
10
1210.44
20
-2.21749
11
1210.44
21
-3.28252
62
6
0
LINE
8
Undeflected
10
1210.44
20
-2.21749
11
1210.57
21
-2.21749
62
7
0
LINE
8
Undeflected
10
1211.43
20
-2.20267
11
1211.75
21
-2.19813
62
8
0
LINE
8
Undeflected
10
1211.75
20
-2.19813
11
1212.06
21
-2.1966
62
9
0
LINE
8
Undeflected
10
1212.13
20
-3.30346
11
1211.75
21
-3.30187
62
10
0
LINE
8
Undeflected
10
1211.75
20
-3.30187
11
1211.43
21
-3.29733
62
1
0
LINE
8
Undeflected
10
1211.31
20
-3.49475
11
1211.61
21
-3.44304
62
2
0
LINE
8
Undeflected
10
1211.61
20
-3.44304
11
1211.96
21
-3.35353
62
3
0
LINE
8
Undeflected
10
1211.96
20
-3.35353
11
1212.13
21
-3.30346
62
4
0
LINE
8
Undeflected
10
1211.33
20
-3.69218
11
1211.31
21
-3.49475
62
5
0
LINE
8
Undeflected
10
1204.69
20
-3.28164
11
1204.69
21
-2.21749
62
6
0
LINE
8
Undeflected
10
1204.49
20
-3.28251
11
1204.49
21
-2.21749
62
7
0
LINE
8
Undeflected
10
1204.49
20
-2.21749
11
1204.68
21
-2.21749
62
8
0
LINE
8
Undeflected
10
1204.69
20
-3.28251
11
1204.49
21
-3.28251
62
9
0
LINE
8
Undeflected
10
1204.68
20
-1.19654
11
1204.68
21
-0.99704
62
10
0
LINE
8
Undeflected
10
1211.24
20
-0.99657
11
1211.24
21
-1.18588
62
1
0
LINE
8
Undeflected
10
1211.24
20
-0.99657
11
1204.68
21
-0.99657
62
2
0
LINE
8
Undeflected
10
1210.44
20
-0.982484
11
1204.69
21
-0.982484
62
3
0
LINE
8
Undeflected
10
1210.44
20
-0.982484
11
1211.24
21
-0.99657
62
4
0
LINE
8
Undeflected
10
1204.68
20
-0.99657
11
1204.69
21
-0.982484
62
5
0
LINE
8
Undeflected
10
1210.44
20
-0.982484
11
1210.53
21
-0.93387
62
6
0
LINE
8
Undeflected
10
1210.54
20
-0.92305
11
1210.58
21
-0.798342
62
7
0
LINE
8
Undeflected
10
1211.43
20
-0.797326
11
1210.58
21
-0.782514
62
8
0
LINE
8
Undeflected
10
1211.43
20
-0.797326
11
1211.31
21
-0.994401
62
9
0
LINE
8
Undeflected
10
1211.31
20
-0.994754
11
1211.24
21
-0.99657
62
10
0
LINE
8
Undeflected
10
1204.69
20
-0.982484
11
1204.69
21
-0.793178
62
1
0
LINE
8
Undeflected
10
1210.44
20
-0.782515
11
1204.69
21
-0.781642
62
2
0
LINE
8
Undeflected
10
1210.44
20
-0.782515
11
1210.44
21
-0.982014
62
3
0
LINE
8
Undeflected
10
1204.28
20
0.296601
11
1204.48
21
0.296601
62
4
0
LINE
8
Undeflected
10
1204.48
20
-0.7966
11
1204.28
21
-0.796599
62
5
0
LINE
8
Undeflected
10
1204.48
20
0.2966
11
1204.48
21
-0.7966
62
6
0
LINE
8
Undeflected
10
1211.24
20
0.696539
11
1211.24
21
0.49704
62
7
0
LINE
8
Undeflected
10
1204.68
20
0.49657
11
1204.68
21
0.696539
62
8
0
LINE
8
Undeflected
10
1204.68
20
0.49657
11
1211.24
21
0.49657
62
9
0
LINE
8
Undeflected
10
1204.69
20
0.482484
11
1210.44
21
0.482484
62
10
0
LINE
8
Undeflected
10
1204.69
20
0.482484
11
1204.68
21
0.49657
62
1
0
LINE
8
Undeflected
10
1211.24
20
0.49657
11
1210.44
21
0.482484
62
2
0
LINE
8
Undeflected
10
1210.44
20
0.482484
11
1210.44
21
0.404083
62
3
0
LINE
8
Undeflected
10
1210.44
20
0.396073
11
1210.44
21
0.283278
62
4
0
LINE
8
Undeflected
10
1204.69
20
0.282515
11
1210.44
21
0.282515
62
5
0
LINE
8
Undeflected
10
1204.69
20
0.282515
11
1204.69
21
0.482013
62
6
0
LINE
8
Undeflected
10
1210.58
20
0.282514
11
1210.58
21
-0.782514
62
7
0
LINE
8
Undeflected
10
1210.58
20
0.282514
11
1211.43
21
0.297326
62
8
0
LINE
8
Undeflected
10
1211.43
20
0.297326
11
1211.43
21
-0.797326
62
9
0
LINE
8
Undeflected
10
1210.58
20
-0.782514
11
1210.45
21
-0.782514
62
10
0
LINE
8
Undeflected
10
1210.44
20
0.282515
11
1210.44
21
-0.782515
62
1
0
LINE
8
Undeflected
10
1210.44
20
0.282514
11
1210.57
21
0.282514
62
2
0
LINE
8
Undeflected
10
1211.43
20
0.297326
11
1211.75
21
0.301866
62
3
0
LINE
8
Undeflected
10
1211.75
20
0.301866
11
1212.13
21
0.303463
62
4
0
LINE
8
Undeflected
10
1212.13
20
-0.803461
11
1211.75
21
-0.801866
62
5
0
LINE
8
Undeflected
10
1211.75
20
-0.801866
11
1211.43
21
-0.797326
62
6
0
LINE
8
Undeflected
10
1211.31
20
-0.994754
11
1211.61
21
-0.943039
62
7
0
LINE
8
Undeflected
10
1211.61
20
-0.943039
11
1211.96
21
-0.853528
62
8
0
LINE
8
Undeflected
10
1211.96
20
-0.853528
11
1212.13
21
-0.803461
62
9
0
LINE
8
Undeflected
10
1211.33
20
-1.19218
11
1211.31
21
-0.994754
62
10
0
LINE
8
Undeflected
10
1212.13
20
0.303463
11
1211.78
21
0.400932
62
1
0
LINE
8
Undeflected
10
1211.78
20
0.400932
11
1211.46
21
0.476108
62
2
0
LINE
8
Undeflected
10
1211.46
20
0.476108
11
1211.31
21
0.494754
62
3
0
LINE
8
Undeflected
10
1211.31
20
0.494754
11
1211.33
21
0.692183
62
4
0
LINE
8
Undeflected
10
1204.69
20
-0.781642
11
1204.69
21
0.282515
62
5
0
LINE
8
Undeflected
10
1204.68
20
1.30346
11
1204.68
21
1.50296
62
6
0
LINE
8
Undeflected
10
1211.24
20
1.50343
11
1211.24
21
1.31412
62
7
0
LINE
8
Undeflected
10
1211.24
20
1.50343
11
1204.68
21
1.50343
62
8
0
LINE
8
Undeflected
10
1204.69
20
1.51752
11
1210.44
21
1.51752
62
9
0
LINE
8
Undeflected
10
1210.44
20
1.51752
11
1211.24
21
1.50343
62
10
0
LINE
8
Undeflected
10
1204.68
20
1.50343
11
1204.69
21
1.51752
62
1
0
LINE
8
Undeflected
10
1204.69
20
1.51752
11
1204.69
21
1.70682
62
2
0
LINE
8
Undeflected
10
1210.44
20
1.71778
11
1204.69
21
1.71749
62
3
0
LINE
8
Undeflected
10
1210.44
20
1.71792
11
1210.44
21
1.51802
62
4
0
LINE
8
Undeflected
10
1204.28
20
2.7966
11
1204.48
21
2.7966
62
5
0
LINE
8
Undeflected
10
1204.48
20
1.7034
11
1204.28
21
1.7034
62
6
0
LINE
8
Undeflected
10
1204.48
20
2.7966
11
1204.48
21
1.7034
62
7
0
LINE
8
Undeflected
10
1211.24
20
3.19654
11
1211.24
21
2.99704
62
8
0
LINE
8
Undeflected
10
1204.68
20
2.99657
11
1204.68
21
3.19654
62
9
0
LINE
8
Undeflected
10
1204.68
20
2.99657
11
1211.24
21
2.99657
62
10
0
LINE
8
Undeflected
10
1204.69
20
2.98248
11
1210.44
21
2.98248
62
1
0
LINE
8
Undeflected
10
1204.69
20
2.98248
11
1204.68
21
2.99657
62
2
0
LINE
8
Undeflected
10
1211.24
20
2.99657
11
1210.44
21
2.98248
62
3
0
LINE
8
Undeflected
10
1210.44
20
2.98248
11
1210.44
21
2.90408
62
4
0
LINE
8
Undeflected
10
1210.44
20
2.89607
11
1210.44
21
2.78328
62
5
0
LINE
8
Undeflected
10
1204.69
20
2.78164
11
1210.44
21
2.78251
62
6
0
LINE
8
Undeflected
10
1204.69
20
2.78164
11
1204.69
21
2.98248
62
7
0
LINE
8
Undeflected
10
1210.58
20
2.78251
11
1210.54
21
2.91135
62
8
0
LINE
8
Undeflected
10
1210.54
20
2.92305
11
1210.45
21
2.98166
62
9
0
LINE
8
Undeflected
10
1211.24
20
2.99657
11
1211.31
21
2.99475
62
10
0
LINE
8
Undeflected
10
1211.31
20
2.99475
11
1211.43
21
2.79947
62
1
0
LINE
8
Undeflected
10
1210.58
20
2.78251
11
1211.43
21
2.79733
62
2
0
LINE
8
Undeflected
10
1210.58
20
2.78251
11
1210.58
21
1.71749
62
3
0
LINE
8
Undeflected
10
1211.43
20
2.79733
11
1211.43
21
1.70267
62
4
0
LINE
8
Undeflected
10
1211.43
20
1.70267
11
1210.58
21
1.71749
62
5
0
LINE
8
Undeflected
10
1210.58
20
1.71749
11
1210.45
21
1.71749
62
6
0
LINE
8
Undeflected
10
1210.44
20
2.78252
11
1210.44
21
1.71792
62
7
0
LINE
8
Undeflected
10
1210.44
20
2.78251
11
1210.57
21
2.78251
62
8
0
LINE
8
Undeflected
10
1211.43
20
2.79733
11
1211.75
21
2.80187
62
9
0
LINE
8
Undeflected
10
1211.75
20
2.80187
11
1212.06
21
2.8034
62
10
0
LINE
8
Undeflected
10
1212.13
20
1.69654
11
1211.75
21
1.69813
62
1
0
LINE
8
Undeflected
10
1211.75
20
1.69813
11
1211.43
21
1.70267
62
2
0
LINE
8
Undeflected
10
1211.31
20
1.50525
11
1211.61
21
1.55696
62
3
0
LINE
8
Undeflected
10
1211.61
20
1.55696
11
1211.96
21
1.64647
62
4
0
LINE
8
Undeflected
10
1211.96
20
1.64647
11
1212.13
21
1.69654
62
5
0
LINE
8
Undeflected
10
1211.33
20
1.30782
11
1211.31
21
1.50525
62
6
0
LINE
8
Undeflected
10
1212.13
20
2.80346
11
1211.78
21
2.90093
62
7
0
LINE
8
Undeflected
10
1211.78
20
2.90093
11
1211.46
21
2.97611
62
8
0
LINE
8
Undeflected
10
1211.46
20
2.97611
11
1211.31
21
2.99475
62
9
0
LINE
8
Undeflected
10
1211.31
20
2.99475
11
1211.33
21
3.19218
62
10
0
LINE
8
Undeflected
10
1204.69
20
1.71749
11
1204.69
21
2.78164
62
1
0
LINE
8
Undeflected
10
1204.68
20
3.80346
11
1204.68
21
4.00296
62
2
0
LINE
8
Undeflected
10
1211.24
20
4.00343
11
1211.24
21
3.81412
62
3
0
LINE
8
Undeflected
10
1211.24
20
4.00343
11
1204.68
21
4.00343
62
4
0
LINE
8
Undeflected
10
1204.69
20
4.01752
11
1210.44
21
4.01751
62
5
0
LINE
8
Undeflected
10
1210.44
20
4.01752
11
1211.24
21
4.00343
62
6
0
LINE
8
Undeflected
10
1204.68
20
4.00343
11
1204.69
21
4.01752
62
7
0
LINE
8
Undeflected
10
1210.54
20
4.07695
11
1210.45
21
4.01834
62
8
0
LINE
8
Undeflected
10
1210.58
20
4.21749
11
1210.54
21
4.08865
62
9
0
LINE
8
Undeflected
10
1211.43
20
4.20267
11
1210.58
21
4.21749
62
10
0
LINE
8
Undeflected
10
1211.43
20
4.20267
11
1211.31
21
4.0056
62
1
0
LINE
8
Undeflected
10
1211.31
20
4.00525
11
1211.24
21
4.00343
62
2
0
LINE
8
Undeflected
10
1210.44
20
4.01752
11
1210.44
21
4.20682
62
3
0
LINE
8
Undeflected
10
1210.44
20
4.21749
11
1210.57
21
4.21749
62
4
0
LINE
8
Undeflected
10
1204.69
20
4.01752
11
1204.69
21
4.20682
62
5
0
LINE
8
Undeflected
10
1204.69
20
4.21749
11
1210.44
21
4.21749
62
6
0
LINE
8
Undeflected
10
1204.28
20
5.2966
11
1204.48
21
5.2966
62
7
0
LINE
8
Undeflected
10
1204.48
20
4.2034
11
1204.28
21
4.2034
62
8
0
LINE
8
Undeflected
10
1204.48
20
5.2966
11
1204.48
21
4.2034
62
9
0
LINE
8
Undeflected
10
1211.24
20
5.69654
11
1211.24
21
5.49704
62
10
0
LINE
8
Undeflected
10
1204.68
20
5.49657
11
1204.68
21
5.69654
62
1
0
LINE
8
Undeflected
10
1204.68
20
5.49657
11
1211.24
21
5.49657
62
2
0
LINE
8
Undeflected
10
1204.69
20
5.48248
11
1210.44
21
5.48248
62
3
0
LINE
8
Undeflected
10
1204.69
20
5.48248
11
1204.68
21
5.49657
62
4
0
LINE
8
Undeflected
10
1211.24
20
5.49657
11
1210.44
21
5.48248
62
5
0
LINE
8
Undeflected
10
1210.44
20
5.48248
11
1210.44
21
5.40408
62
6
0
LINE
8
Undeflected
10
1210.44
20
5.39607
11
1210.44
21
5.28328
62
7
0
LINE
8
Undeflected
10
1204.69
20
5.28193
11
1210.44
21
5.28252
62
8
0
LINE
8
Undeflected
10
1204.69
20
5.28251
11
1204.69
21
5.48201
62
9
0
LINE
8
Undeflected
10
1210.58
20
5.28251
11
1210.58
21
4.21749
62
10
0
LINE
8
Undeflected
10
1210.44
20
5.28252
11
1210.44
21
4.21749
62
1
0
LINE
8
Undeflected
10
1210.44
20
5.28251
11
1210.57
21
5.28251
62
2
0
LINE
8
Undeflected
10
1210.58
20
5.28251
11
1211.43
21
5.29733
62
3
0
LINE
8
Undeflected
10
1211.43
20
5.29733
11
1211.43
21
4.20267
62
4
0
LINE
8
Undeflected
10
1211.43
20
5.29733
11
1211.75
21
5.30187
62
5
0
LINE
8
Undeflected
10
1211.75
20
5.30187
11
1212.13
21
5.30346
62
6
0
LINE
8
Undeflected
10
1212.13
20
4.19654
11
1211.75
21
4.19813
62
7
0
LINE
8
Undeflected
10
1211.75
20
4.19813
11
1211.43
21
4.20267
62
8
0
LINE
8
Undeflected
10
1212.13
20
5.30346
11
1211.78
21
5.40093
62
9
0
LINE
8
Undeflected
10
1211.78
20
5.40093
11
1211.46
21
5.47611
62
10
0
LINE
8
Undeflected
10
1211.46
20
5.47611
11
1211.31
21
5.49475
62
1
0
LINE
8
Undeflected
10
1211.31
20
5.49475
11
1211.33
21
5.69218
62
2
0
LINE
8
Undeflected
10
1204.69
20
4.21749
11
1204.69
21
5.28251
62
3
0
LINE
8
Undeflected
10
1204.49
20
4.21749
11
1204.49
21
5.28251
62
4
0
LINE
8
Undeflected
10
1204.49
20
5.28251
11
1204.68
21
5.28251
62
5
0
LINE
8
Undeflected
10
1204.69
20
4.21749
11
1204.49
21
4.21749
62
6
0
LINE
8
Undeflected
10
1204.68
20
6.30346
11
1204.68
21
6.50296
62
7
0
LINE
8
Undeflected
10
1217.07
20
6.50343
11
1217.07
21
6.30346
62
8
0
LINE
8
Undeflected
10
1217.07
20
6.50343
11
1204.68
21
6.50343
62
9
0
LINE
8
Undeflected
10
1204.68
20
6.50343
11
1204.7
21
6.522
62
10
0
LINE
8
Undeflected
10
1204.7
20
6.522
11
1217.05
21
6.522
62
1
0
LINE
8
Undeflected
10
1217.05
20
6.522
11
1217.07
21
6.50343
62
2
0
LINE
8
Undeflected
10
1204.28
20
8.24024
11
1204.48
21
8.24024
62
3
0
LINE
8
Undeflected
10
1204.48
20
6.7034
11
1204.28
21
6.7034
62
4
0
LINE
8
Undeflected
10
1204.48
20
8.24024
11
1204.48
21
6.7034
62
5
0
LINE
8
Undeflected
10
1217.07
20
8.64018
11
1217.07
21
8.44068
62
6
0
LINE
8
Undeflected
10
1204.68
20
8.44021
11
1204.68
21
8.64018
62
7
0
LINE
8
Undeflected
10
1204.68
20
8.44021
11
1217.07
21
8.44021
62
8
0
LINE
8
Undeflected
10
1204.7
20
8.41788
11
1217.04
21
8.41787
62
9
0
LINE
8
Undeflected
10
1204.7
20
8.41788
11
1204.68
21
8.44021
62
10
0
LINE
8
Undeflected
10
1217.07
20
8.44021
11
1217.04
21
8.41787
62
1
0
LINE
8
Undeflected
10
1204.5
20
6.81469
11
1204.5
21
8.2179
62
2
0
LINE
8
Undeflected
10
1204.5
20
8.2179
11
1204.7
21
8.41788
62
3
0
LINE
8
Undeflected
10
1217.04
20
8.41787
11
1217.24
21
8.21788
62
4
0
LINE
8
Undeflected
10
1217.24
20
8.21788
11
1217.24
21
6.81537
62
5
0
LINE
8
Undeflected
10
1217.24
20
6.81537
11
1217.22
21
6.69482
62
6
0
LINE
8
Undeflected
10
1217.22
20
6.69482
11
1217.05
21
6.5793
62
7
0
LINE
8
Undeflected
10
1217.05
20
6.5793
11
1204.7
21
6.5788
62
8
0
LINE
8
Undeflected
10
1204.7
20
6.5788
11
1204.53
21
6.69623
62
9
0
LINE
8
Undeflected
10
1204.53
20
6.69623
11
1204.5
21
6.81469
62
10
0
LINE
8
Undeflected
10
1217.47
20
6.7034
11
1217.27
21
6.7034
62
1
0
LINE
8
Undeflected
10
1217.27
20
8.24024
11
1217.47
21
8.24024
62
2
0
LINE
8
Undeflected
10
1217.27
20
6.7034
11
1217.27
21
8.24024
62
3
0
LINE
8
Undeflected
10
1204.68
20
-6.64018
11
1204.68
21
-6.44068
62
4
0
LINE
8
Undeflected
10
1217.07
20
-6.44021
11
1217.07
21
-6.64018
62
5
0
LINE
8
Undeflected
10
1217.07
20
-6.44021
11
1204.68
21
-6.44021
62
6
0
LINE
8
Undeflected
10
1217.04
20
-6.41674
11
1204.7
21
-6.41676
62
7
0
LINE
8
Undeflected
10
1217.04
20
-6.41674
11
1217.07
21
-6.44021
62
8
0
LINE
8
Undeflected
10
1204.68
20
-6.44021
11
1204.7
21
-6.41676
62
9
0
LINE
8
Undeflected
10
1204.5
20
-6.2168
11
1204.5
21
-4.85033
62
10
0
LINE
8
Undeflected
10
1204.5
20
-4.85033
11
1204.63
21
-4.62309
62
1
0
LINE
8
Undeflected
10
1204.63
20
-4.62309
11
1204.7
21
-4.60796
62
2
0
LINE
8
Undeflected
10
1204.7
20
-4.60796
11
1217.05
21
-4.6086
62
3
0
LINE
8
Undeflected
10
1217.05
20
-4.6086
11
1217.11
21
-4.62161
62
4
0
LINE
8
Undeflected
10
1217.11
20
-4.62161
11
1217.24
21
-4.85101
62
5
0
LINE
8
Undeflected
10
1217.24
20
-4.85101
11
1217.24
21
-6.21678
62
6
0
LINE
8
Undeflected
10
1217.24
20
-6.21678
11
1217.04
21
-6.41674
62
7
0
LINE
8
Undeflected
10
1204.7
20
-6.41676
11
1204.51
21
-6.2539
62
8
0
LINE
8
Undeflected
10
1204.28
20
-4.7034
11
1204.48
21
-4.7034
62
9
0
LINE
8
Undeflected
10
1204.48
20
-6.24024
11
1204.28
21
-6.24024
62
10
0
LINE
8
Undeflected
10
1204.48
20
-4.7034
11
1204.48
21
-6.24024
62
1
0
LINE
8
Undeflected
10
1217.07
20
-4.30346
11
1217.07
21
-4.50296
62
2
0
LINE
8
Undeflected
10
1204.68
20
-4.50343
11
1204.68
21
-4.30346
62
3
0
LINE
8
Undeflected
10
1204.68
20
-4.50343
11
1217.07
21
-4.50343
62
4
0
LINE
8
Undeflected
10
1217.07
20
-4.50343
11
1217.05
21
-4.522
62
5
0
LINE
8
Undeflected
10
1217.05
20
-4.522
11
1204.7
21
-4.522
62
6
0
LINE
8
Undeflected
10
1204.7
20
-4.522
11
1204.68
21
-4.50343
62
7
0
LINE
8
Undeflected
10
1217.47
20
-6.24024
11
1217.27
21
-6.24024
62
8
0
LINE
8
Undeflected
10
1217.27
20
-4.7034
11
1217.47
21
-4.7034
62
9
0
LINE
8
Undeflected
10
1217.27
20
-6.24024
11
1217.27
21
-4.7034
62
10
0
LINE
8
Undeflected
10
1229.52
20
-43.65
11
1229.52
21
-42.6764
62
1
0
LINE
8
Undeflected
10
1229.52
20
-43.0983
11
1229.52
21
-42.9354
62
2
0
LINE
8
Undeflected
10
1229.52
20
-42.9354
11
1229.52
21
-42.6994
62
3
0
LINE
8
Undeflected
10
1232.47
20
-36.4214
11
1232.47
21
-36.4208
62
4
0
LINE
8
Undeflected
10
1232.47
20
-36.4207
11
1232.44
21
-36.4166
62
5
0
LINE
8
Undeflected
10
1232.36
20
-36.4046
11
1232.3
21
-36.3949
62
6
0
LINE
8
Undeflected
10
1204.68
20
5.59757
11
1204.68
21
5.52636
62
7
0
LINE
8
Undeflected
10
1211.24
20
5.49657
11
1204.68
21
5.49657
62
8
0
LINE
8
Undeflected
10
1204.68
20
5.49657
11
1204.69
21
5.48248
62
9
0
LINE
8
Undeflected
10
1204.69
20
5.48248
11
1204.69
21
5.29318
62
10
0
LINE
8
Undeflected
10
1210.44
20
5.2823
11
1208.87
21
5.28236
62
1
0
LINE
8
Undeflected
10
1210.54
20
5.42305
11
1210.45
21
5.48166
62
2
0
LINE
8
Undeflected
10
1210.58
20
5.28251
11
1210.54
21
5.41135
62
3
0
LINE
8
Undeflected
10
1204.38
20
4.2034
11
1204.45
21
4.2034
62
4
0
LINE
8
Undeflected
10
1204.48
20
5.2966
11
1204.46
21
5.29663
62
5
0
LINE
8
Undeflected
10
1204.38
20
5.2966
11
1204.29
21
5.29722
62
6
0
LINE
8
Undeflected
10
1204.68
20
4.00338
11
1204.68
21
3.97944
62
7
0
LINE
8
Undeflected
10
1204.68
20
3.90243
11
1204.68
21
3.81376
62
8
0
LINE
8
Undeflected
10
1211.24
20
4.00343
11
1211.31
21
4.00525
62
9
0
LINE
8
Undeflected
10
1211.31
20
4.00525
11
1211.43
21
4.20053
62
10
0
LINE
8
Undeflected
10
1211.43
20
5.29733
11
1210.58
21
5.28251
62
1
0
LINE
8
Undeflected
10
1211.84
20
5.30256
11
1211.77
21
5.30203
62
2
0
LINE
8
Undeflected
10
1204.68
20
3.09757
11
1204.68
21
3.02637
62
3
0
LINE
8
Undeflected
10
1204.68
20
2.99657
11
1204.69
21
2.98248
62
4
0
LINE
8
Undeflected
10
1211.31
20
2.99475
11
1211.24
21
2.99657
62
5
0
LINE
8
Undeflected
10
1204.69
20
2.98248
11
1204.69
21
2.79318
62
6
0
LINE
8
Undeflected
10
1204.38
20
1.7034
11
1204.45
21
1.7034
62
7
0
LINE
8
Undeflected
10
1204.48
20
2.7966
11
1204.46
21
2.79663
62
8
0
LINE
8
Undeflected
10
1204.38
20
2.7966
11
1204.29
21
2.79722
62
9
0
LINE
8
Undeflected
10
1204.68
20
1.50338
11
1204.68
21
1.47944
62
10
0
LINE
8
Undeflected
10
1204.68
20
1.40243
11
1204.68
21
1.31376
62
1
0
LINE
8
Undeflected
10
1211.24
20
1.50343
11
1210.44
21
1.51752
62
2
0
LINE
8
Undeflected
10
1204.69
20
1.61849
11
1204.69
21
1.55096
62
3
0
LINE
8
Undeflected
10
1211.9
20
1.69714
11
1212.13
21
1.69654
62
4
0
LINE
8
Undeflected
10
1211.84
20
2.80256
11
1211.77
21
2.80203
62
5
0
LINE
8
Undeflected
10
1211.31
20
1.50525
11
1211.32
21
1.33485
62
6
0
LINE
8
Undeflected
10
1212.07
20
1.6785
11
1211.72
21
1.58327
62
7
0
LINE
8
Undeflected
10
1211.72
20
1.58327
11
1211.4
21
1.51524
62
8
0
LINE
8
Undeflected
10
1204.69
20
2.78251
11
1204.69
21
2.42726
62
9
0
LINE
8
Undeflected
10
1204.68
20
0.597573
11
1204.68
21
0.526365
62
10
0
LINE
8
Undeflected
10
1211.24
20
0.49657
11
1204.68
21
0.49657
62
1
0
LINE
8
Undeflected
10
1204.68
20
0.49657
11
1204.69
21
0.482484
62
2
0
LINE
8
Undeflected
10
1204.38
20
-0.796601
11
1204.45
21
-0.796601
62
3
0
LINE
8
Undeflected
10
1204.48
20
0.296601
11
1204.46
21
0.296632
62
4
0
LINE
8
Undeflected
10
1204.38
20
0.296601
11
1204.29
21
0.297219
62
5
0
LINE
8
Undeflected
10
1204.68
20
-0.996624
11
1204.68
21
-1.02056
62
6
0
LINE
8
Undeflected
10
1204.68
20
-1.09757
11
1204.68
21
-1.18624
62
7
0
LINE
8
Undeflected
10
1211.24
20
-0.99657
11
1210.44
21
-0.982484
62
8
0
LINE
8
Undeflected
10
1211.24
20
-0.99657
11
1211.31
21
-0.994754
62
9
0
LINE
8
Undeflected
10
1211.31
20
-0.994754
11
1211.43
21
-0.79947
62
10
0
LINE
8
Undeflected
10
1211.43
20
0.297326
11
1210.58
21
0.282514
62
1
0
LINE
8
Undeflected
10
1211.9
20
-0.802855
11
1212.13
21
-0.803463
62
2
0
LINE
8
Undeflected
10
1211.84
20
0.302563
11
1211.77
21
0.302026
62
3
0
LINE
8
Undeflected
10
1212.07
20
-0.821498
11
1211.72
21
-0.916731
62
4
0
LINE
8
Undeflected
10
1211.72
20
-0.916731
11
1211.4
21
-0.984758
62
5
0
LINE
8
Undeflected
10
1211.31
20
-0.994754
11
1211.32
21
-1.16515
62
6
0
LINE
8
Undeflected
10
1204.68
20
-1.90243
11
1204.68
21
-1.97363
62
7
0
LINE
8
Undeflected
10
1204.68
20
-2.00343
11
1204.69
21
-2.01752
62
8
0
LINE
8
Undeflected
10
1211.31
20
-2.00525
11
1211.24
21
-2.00343
62
9
0
LINE
8
Undeflected
10
1204.38
20
-3.2966
11
1204.45
21
-3.2966
62
10
0
LINE
8
Undeflected
10
1204.48
20
-2.2034
11
1204.46
21
-2.20337
62
1
0
LINE
8
Undeflected
10
1204.38
20
-2.2034
11
1204.29
21
-2.20278
62
2
0
LINE
8
Undeflected
10
1204.68
20
-3.49662
11
1204.68
21
-3.52056
62
3
0
LINE
8
Undeflected
10
1204.68
20
-3.59757
11
1204.68
21
-3.68624
62
4
0
LINE
8
Undeflected
10
1211.24
20
-3.49657
11
1210.44
21
-3.48248
62
5
0
LINE
8
Undeflected
10
1211.43
20
-3.29733
11
1211.43
21
-2.20267
62
6
0
LINE
8
Undeflected
10
1211.9
20
-3.30286
11
1212.13
21
-3.30346
62
7
0
LINE
8
Undeflected
10
1212.07
20
-3.3215
11
1211.72
21
-3.41673
62
8
0
LINE
8
Undeflected
10
1211.72
20
-3.41673
11
1211.4
21
-3.48476
62
9
0
LINE
8
Undeflected
10
1211.31
20
-3.49475
11
1211.32
21
-3.66515
62
10
0
LINE
8
Undeflected
10
1204.69
20
-2.21836
11
1204.69
21
-2.75
62
1
0
LINE
8
Undeflected
10
1204.49
20
-3.28251
11
1204.68
21
-3.28251
62
2
0
LINE
8
Undeflected
10
1204.68
20
-4.40243
11
1204.68
21
-4.47364
62
3
0
LINE
8
Undeflected
10
1217.07
20
-4.50338
11
1217.07
21
-4.47944
62
4
0
LINE
8
Undeflected
10
1217.07
20
-4.40243
11
1217.07
21
-4.31376
62
5
0
LINE
8
Undeflected
10
1204.68
20
-4.50343
11
1204.7
21
-4.522
62
6
0
LINE
8
Undeflected
10
1204.38
20
-6.24024
11
1204.45
21
-6.24024
62
7
0
LINE
8
Undeflected
10
1204.48
20
-4.7034
11
1204.46
21
-4.70337
62
8
0
LINE
8
Undeflected
10
1204.38
20
-4.7034
11
1204.29
21
-4.70278
62
9
0
LINE
8
Undeflected
10
1217.07
20
-6.54121
11
1217.07
21
-6.47
62
10
0
LINE
8
Undeflected
10
1204.68
20
-6.44026
11
1204.68
21
-6.4642
62
1
0
LINE
8
Undeflected
10
1204.68
20
-6.54121
11
1204.68
21
-6.62988
62
2
0
LINE
8
Undeflected
10
1217.07
20
-6.44021
11
1217.04
21
-6.41674
62
3
0
LINE
8
Undeflected
10
1217.14
20
-6.38911
11
1217.21
21
-6.32475
62
4
0
LINE
8
Undeflected
10
1217.24
20
-6.21678
11
1217.24
21
-4.85101
62
5
0
LINE
8
Undeflected
10
1217.24
20
-4.85101
11
1217.23
21
-4.75814
62
6
0
LINE
8
Undeflected
10
1217.11
20
-4.62161
11
1217.1
21
-4.61913
62
7
0
LINE
8
Undeflected
10
1217.05
20
-4.6086
11
1204.7
21
-4.60796
62
8
0
LINE
8
Undeflected
10
1204.7
20
-4.60796
11
1204.69
21
-4.60812
62
9
0
LINE
8
Undeflected
10
1204.66
20
-4.6138
11
1204.64
21
-4.6208
62
10
0
LINE
8
Undeflected
10
1217.37
20
-4.7034
11
1217.3
21
-4.7034
62
1
0
LINE
8
Undeflected
10
1217.27
20
-6.24024
11
1217.29
21
-6.24027
62
2
0
LINE
8
Undeflected
10
1217.37
20
-6.24024
11
1217.46
21
-6.24085
62
3
0
LINE
8
Undeflected
10
1204.68
20
8.54121
11
1204.68
21
8.47
62
4
0
LINE
8
Undeflected
10
1217.07
20
8.44026
11
1217.07
21
8.46419
62
5
0
LINE
8
Undeflected
10
1217.07
20
8.54121
11
1217.07
21
8.62988
62
6
0
LINE
8
Undeflected
10
1217.04
20
8.41787
11
1217.06
21
8.43584
62
7
0
LINE
8
Undeflected
10
1204.5
20
8.2179
11
1204.5
21
6.81469
62
8
0
LINE
8
Undeflected
10
1204.5
20
6.81469
11
1204.52
21
6.70738
62
9
0
LINE
8
Undeflected
10
1204.57
20
6.63066
11
1204.63
21
6.59432
62
10
0
LINE
8
Undeflected
10
1204.7
20
6.5788
11
1217.05
21
6.5793
62
1
0
LINE
8
Undeflected
10
1217.05
20
6.5793
11
1217.22
21
6.69482
62
2
0
LINE
8
Undeflected
10
1217.22
20
6.69482
11
1217.24
21
6.80258
62
3
0
LINE
8
Undeflected
10
1217.24
20
6.81537
11
1217.24
21
8.21788
62
4
0
LINE
8
Undeflected
10
1217.24
20
8.21788
11
1217.22
21
8.30896
62
5
0
LINE
8
Undeflected
10
1217.15
20
8.38979
11
1217.06
21
8.41745
62
6
0
LINE
8
Undeflected
10
1204.38
20
6.7034
11
1204.45
21
6.7034
62
7
0
LINE
8
Undeflected
10
1204.48
20
8.24024
11
1204.46
21
8.24027
62
8
0
LINE
8
Undeflected
10
1204.38
20
8.24024
11
1204.29
21
8.24086
62
9
0
LINE
8
Undeflected
10
1217.07
20
6.40243
11
1217.07
21
6.47363
62
10
0
LINE
8
Undeflected
10
1204.68
20
6.50338
11
1204.68
21
6.47944
62
1
0
LINE
8
Undeflected
10
1204.68
20
6.40243
11
1204.68
21
6.31376
62
2
0
LINE
8
Undeflected
10
1217.07
20
6.50343
11
1217.05
21
6.522
62
3
0
LINE
8
Undeflected
10
1217.37
20
8.24024
11
1217.3
21
8.24024
62
4
0
LINE
8
Undeflected
10
1217.27
20
6.7034
11
1217.29
21
6.70337
62
5
0
LINE
8
Undeflected
10
1217.37
20
6.7034
11
1217.46
21
6.70279
62
6
0
LINE
8
Undeflected
10
1220.28
20
-44.0086
11
1220.15
21
-43.9507
62
7
0
LINE
8
Undeflected
10
1220.14
20
-43.95
11
1220.27
21
-43.997
62
8
0
LINE
8
Undeflected
10
1220.28
20
-44.0086
11
1222.02
21
-45.7471
62
9
0
LINE
8
Undeflected
10
1222.02
20
-45.7471
11
1222.07
21
-45.7985
62
10
0
LINE
8
Undeflected
10
1222.07
20
-45.7985
11
1222.02
21
-45.7471
62
1
0
LINE
8
Undeflected
10
1222.02
20
-45.7471
11
1220.28
21
-44.0086
62
2
0
LINE
8
Undeflected
10
1220.57
20
-44.1063
11
1220.47
21
-44.0703
62
3
0
LINE
8
Undeflected
10
1220.42
20
-44.0556
11
1220.29
21
-44.0112
62
4
0
LINE
8
Undeflected
10
1220.28
20
-44.009
11
1220.54
21
-44.0955
62
5
0
LINE
8
Undeflected
10
1220.54
20
-44.0955
11
1220.6
21
-44.1148
62
6
0
LINE
8
Undeflected
10
1222.38
20
-44.1462
11
1222.57
21
-44.1465
62
7
0
LINE
8
Undeflected
10
1222.2
20
-45.6607
11
1222.16
21
-45.6092
62
8
0
LINE
8
Undeflected
10
1222.82
20
-45.9535
11
1222.78
21
-45.9535
62
9
0
LINE
8
Undeflected
10
1223.01
20
-44.1428
11
1223.32
21
-44.1333
62
10
0
LINE
8
Undeflected
10
1223.63
20
-44.1326
11
1223.62
21
-44.1639
62
1
0
LINE
8
Undeflected
10
1223.81
20
-45.0599
11
1223.62
21
-44.8602
62
2
0
LINE
8
Undeflected
10
1223.81
20
-45.0599
11
1224.47
21
-45.0944
62
3
0
LINE
8
Undeflected
10
1224.57
20
-45.1264
11
1224.73
21
-45.2326
62
4
0
LINE
8
Undeflected
10
1224.82
20
-45.4003
11
1224.82
21
-45.4892
62
5
0
LINE
8
Undeflected
10
1224.73
20
-45.2326
11
1224.57
21
-45.1264
62
6
0
LINE
8
Undeflected
10
1223.24
20
-46.0927
11
1223.24
21
-45.9688
62
7
0
LINE
8
Undeflected
10
1223.04
20
-46.15
11
1223.13
21
-46.15
62
8
0
LINE
8
Undeflected
10
1222.87
20
-46.1104
11
1222.95
21
-46.1498
62
9
0
LINE
8
Undeflected
10
1222.96
20
-46.15
11
1223.21
21
-46.15
62
10
0
LINE
8
Undeflected
10
1223.36
20
-44.1326
11
1223.13
21
-44.1387
62
1
0
LINE
8
Undeflected
10
1222.69
20
-46.128
11
1222.83
21
-46.1465
62
2
0
LINE
8
Undeflected
10
1222.48
20
-46.0661
11
1222.29
21
-45.9709
62
3
0
LINE
8
Undeflected
10
1222.77
20
-46.1412
11
1222.73
21
-46.1348
62
4
0
LINE
8
Undeflected
10
1222.92
20
-46.15
11
1222.92
21
-46.15
62
5
0
LINE
8
Undeflected
10
1224.53
20
-46.15
11
1223.24
21
-46.15
62
6
0
LINE
8
Undeflected
10
1222.96
20
-46.15
11
1223.13
21
-46.15
62
7
0
LINE
8
Undeflected
10
1222.92
20
-46.15
11
1222.96
21
-46.15
62
8
0
LINE
8
Undeflected
10
1222.96
20
-46.15
11
1222.92
21
-46.15
62
9
0
LINE
8
Undeflected
10
1222.8
20
-46.0584
11
1222.85
21
-46.1257
62
10
0
LINE
8
Undeflected
10
1222.92
20
-46.15
11
1222.85
21
-46.148
62
1
0
LINE
8
Undeflected
10
1222.07
20
-45.7985
11
1222.07
21
-45.7909
62
2
0
LINE
8
Undeflected
10
1222.07
20
-45.8031
11
1222.26
21
-45.9555
62
3
0
LINE
8
Undeflected
10
1203.18
20
-43.95
11
1203.47
21
-43.95
62
4
0
LINE
8
Undeflected
10
1203.47
20
-43.95
11
1203.53
21
-43.95
62
5
0
LINE
8
Undeflected
10
1223.62
20
45.95
11
1223.62
21
46.1335
62
6
0
LINE
8
Undeflected
10
1223.62
20
46.1335
11
1223.82
21
45.95
62
7
0
LINE
8
Undeflected
10
1220.28
20
46.0086
11
1220.15
21
45.9507
62
8
0
LINE
8
Undeflected
10
1220.14
20
45.95
11
1220.27
21
45.997
62
9
0
LINE
8
Undeflected
10
1222.02
20
47.7471
11
1222.07
21
47.7985
62
10
0
LINE
8
Undeflected
10
1222.07
20
47.7985
11
1222.02
21
47.7471
62
1
0
LINE
8
Undeflected
10
1222.02
20
47.7471
11
1220.28
21
46.0086
62
2
0
LINE
8
Undeflected
10
1220.7
20
46.1465
11
1222.16
21
47.6092
62
3
0
LINE
8
Undeflected
10
1222.02
20
47.7471
11
1222.15
21
47.6174
62
4
0
LINE
8
Undeflected
10
1220.7
20
46.1465
11
1220.38
21
46.0403
62
5
0
LINE
8
Undeflected
10
1220.38
20
46.0403
11
1220.28
21
46.0086
62
6
0
LINE
8
Undeflected
10
1222.15
20
46.1465
11
1220.7
21
46.1465
62
7
0
LINE
8
Undeflected
10
1222.16
20
47.6092
11
1222.15
21
46.1465
62
8
0
LINE
8
Undeflected
10
1220.28
20
46.0086
11
1220.57
21
46.1056
62
9
0
LINE
8
Undeflected
10
1220.57
20
46.1056
11
1220.63
21
46.1255
62
10
0
LINE
8
Undeflected
10
1222.15
20
46.1465
11
1222.38
21
46.1462
62
1
0
LINE
8
Undeflected
10
1222.38
20
46.1462
11
1222.57
21
46.1465
62
2
0
LINE
8
Undeflected
10
1222.59
20
47.9352
11
1222.57
21
46.1466
62
3
0
LINE
8
Undeflected
10
1222.2
20
47.6607
11
1222.16
21
47.6092
62
4
0
LINE
8
Undeflected
10
1222.93
20
46.1535
11
1222.82
21
47.9535
62
5
0
LINE
8
Undeflected
10
1222.82
20
47.9535
11
1222.78
21
47.9535
62
6
0
LINE
8
Undeflected
10
1223.01
20
46.1428
11
1223.32
21
46.1333
62
7
0
LINE
8
Undeflected
10
1223.76
20
45.9712
11
1223.69
21
46.0226
62
8
0
LINE
8
Undeflected
10
1223.62
20
46.1364
11
1223.62
21
46.1745
62
9
0
LINE
8
Undeflected
10
1223.81
20
47.0599
11
1224.47
21
47.0944
62
10
0
LINE
8
Undeflected
10
1224.57
20
47.1264
11
1224.73
21
47.2326
62
1
0
LINE
8
Undeflected
10
1223.62
20
46.8602
11
1223.81
21
47.0599
62
2
0
LINE
8
Undeflected
10
1223.62
20
46.1326
11
1223.36
21
46.1326
62
3
0
LINE
8
Undeflected
10
1223.36
20
46.1326
11
1223.24
21
47.9674
62
4
0
LINE
8
Undeflected
10
1223.24
20
47.9674
11
1224.64
21
47.9674
62
5
0
LINE
8
Undeflected
10
1224.64
20
47.9674
11
1224.74
21
47.7892
62
6
0
LINE
8
Undeflected
10
1224.82
20
47.4892
11
1224.74
21
47.7892
62
7
0
LINE
8
Undeflected
10
1224.82
20
47.4892
11
1224.82
21
47.4003
62
8
0
LINE
8
Undeflected
10
1224.73
20
47.2326
11
1224.82
21
47.4003
62
9
0
LINE
8
Undeflected
10
1224.73
20
47.2326
11
1224.57
21
47.1264
62
10
0
LINE
8
Undeflected
10
1224.57
20
47.1264
11
1224.47
21
47.0944
62
1
0
LINE
8
Undeflected
10
1224.47
20
47.0944
11
1223.81
21
47.0599
62
2
0
LINE
8
Undeflected
10
1223.62
20
46.8602
11
1223.62
21
46.1957
62
3
0
LINE
8
Undeflected
10
1223.62
20
46.1957
11
1223.62
21
46.1326
62
4
0
LINE
8
Undeflected
10
1224.53
20
48.15
11
1224.64
21
47.9674
62
5
0
LINE
8
Undeflected
10
1223.24
20
48.15
11
1224.53
21
48.15
62
6
0
LINE
8
Undeflected
10
1223.24
20
48.15
11
1223.24
21
47.984
62
7
0
LINE
8
Undeflected
10
1222.96
20
48.15
11
1223.24
21
48.15
62
8
0
LINE
8
Undeflected
10
1222.82
20
47.9535
11
1222.94
21
48.1482
62
9
0
LINE
8
Undeflected
10
1223.24
20
47.9674
11
1222.93
21
47.9583
62
10
0
LINE
8
Undeflected
10
1222.93
20
47.9583
11
1222.82
21
47.9535
62
1
0
LINE
8
Undeflected
10
1222.96
20
48.15
11
1223.24
21
48.15
62
2
0
LINE
8
Undeflected
10
1222.82
20
47.9535
11
1222.93
21
46.1465
62
3
0
LINE
8
Undeflected
10
1223.36
20
46.1326
11
1223.04
21
46.1417
62
4
0
LINE
8
Undeflected
10
1223.04
20
46.1417
11
1222.93
21
46.1465
62
5
0
LINE
8
Undeflected
10
1222.93
20
46.1465
11
1222.57
21
46.1465
62
6
0
LINE
8
Undeflected
10
1222.57
20
46.1465
11
1222.59
21
47.9352
62
7
0
LINE
8
Undeflected
10
1222.59
20
47.9352
11
1222.72
21
47.9522
62
8
0
LINE
8
Undeflected
10
1222.78
20
47.9535
11
1222.82
21
47.9535
62
9
0
LINE
8
Undeflected
10
1222.69
20
48.128
11
1222.38
21
48.0235
62
10
0
LINE
8
Undeflected
10
1222.38
20
48.0235
11
1222.07
21
47.7985
62
1
0
LINE
8
Undeflected
10
1222.92
20
48.15
11
1222.69
21
48.128
62
2
0
LINE
8
Undeflected
10
1222.92
20
48.15
11
1222.92
21
48.15
62
3
0
LINE
8
Undeflected
10
1222.69
20
48.128
11
1222.92
21
48.15
62
4
0
LINE
8
Undeflected
10
1222.28
20
47.9639
11
1222.46
21
48.0611
62
5
0
LINE
8
Undeflected
10
1222.69
20
48.128
11
1222.59
21
47.9352
62
6
0
LINE
8
Undeflected
10
1222.2
20
47.6607
11
1222.07
21
47.7985
62
7
0
LINE
8
Undeflected
10
1222.59
20
47.9352
11
1222.31
21
47.7813
62
8
0
LINE
8
Undeflected
10
1222.31
20
47.7813
11
1222.2
21
47.6607
62
9
0
LINE
8
Undeflected
10
1222.69
20
48.128
11
1222.4
21
48.034
62
10
0
LINE
8
Undeflected
10
1222.4
20
48.034
11
1222.12
21
47.8469
62
1
0
LINE
8
Undeflected
10
1222.12
20
47.8469
11
1222.07
21
47.7996
62
2
0
LINE
8
Undeflected
10
1222.07
20
47.7985
11
1222.07
21
47.7963
62
3
0
LINE
8
Undeflected
10
1222.27
20
47.9617
11
1222.12
21
47.848
62
4
0
LINE
8
Undeflected
10
1222.78
20
47.9535
11
1222.91
21
48.1497
62
5
0
LINE
8
Undeflected
10
1223.24
20
48.15
11
1223.24
21
48.149
62
6
0
LINE
8
Undeflected
10
1224.53
20
48.15
11
1223.24
21
48.15
62
7
0
LINE
8
Undeflected
10
1222.96
20
48.15
11
1223.13
21
48.15
62
8
0
LINE
8
Undeflected
10
1222.92
20
48.15
11
1222.96
21
48.15
62
9
0
LINE
8
Undeflected
10
1222.96
20
48.15
11
1222.92
21
48.15
62
10
0
LINE
8
Undeflected
10
1220.28
20
46.0086
11
1220.15
21
45.9507
62
1
0
LINE
8
Undeflected
10
1220.14
20
45.95
11
1220.27
21
45.997
62
2
0
LINE
8
Undeflected
10
1222.02
20
47.7471
11
1222.07
21
47.7985
62
3
0
LINE
8
Undeflected
10
1222.07
20
47.7985
11
1222.02
21
47.7471
62
4
0
LINE
8
Undeflected
10
1220.57
20
46.1036
11
1220.28
21
46.0103
62
5
0
LINE
8
Undeflected
10
1222.16
20
47.6092
11
1222.2
21
47.6607
62
6
0
LINE
8
Undeflected
10
1220.28
20
46.009
11
1220.44
21
46.0614
62
7
0
LINE
8
Undeflected
10
1223.06
20
47.9629
11
1223.2
21
47.9666
62
8
0
LINE
8
Undeflected
10
1223.36
20
46.1326
11
1223.04
21
46.1417
62
9
0
LINE
8
Undeflected
10
1223.04
20
46.1417
11
1222.93
21
46.1465
62
10
0
LINE
8
Undeflected
10
1224.64
20
47.9674
11
1224.74
21
47.7892
62
1
0
LINE
8
Undeflected
10
1224.82
20
47.4892
11
1224.82
21
47.4003
62
2
0
LINE
8
Undeflected
10
1224.73
20
47.2326
11
1224.57
21
47.1264
62
3
0
LINE
8
Undeflected
10
1223.62
20
46.8602
11
1223.81
21
47.0599
62
4
0
LINE
8
Undeflected
10
1223.62
20
46.1364
11
1223.62
21
46.1745
62
5
0
LINE
8
Undeflected
10
1223.81
20
47.0599
11
1224.47
21
47.0944
62
6
0
LINE
8
Undeflected
10
1224.57
20
47.1264
11
1224.73
21
47.2326
62
7
0
LINE
8
Undeflected
10
1222.93
20
46.1465
11
1223.22
21
46.136
62
8
0
LINE
8
Undeflected
10
1223.22
20
46.136
11
1223.31
21
46.1336
62
9
0
LINE
8
Undeflected
10
1223.16
20
48.15
11
1223.2
21
48.15
62
10
0
LINE
8
Undeflected
10
1222.92
20
48.15
11
1222.96
21
48.15
62
1
0
LINE
8
Undeflected
10
1222.96
20
48.15
11
1222.92
21
48.15
62
2
0
LINE
8
Undeflected
10
1223.17
20
48.15
11
1222.99
21
48.15
62
3
0
LINE
8
Undeflected
10
1222.92
20
48.15
11
1222.87
21
48.1388
62
4
0
LINE
8
Undeflected
10
1222.8
20
48.0584
11
1222.78
21
47.976
62
5
0
LINE
8
Undeflected
10
1222.7
20
48.1297
11
1222.9
21
48.1499
62
6
0
LINE
8
Undeflected
10
1222.92
20
48.15
11
1222.69
21
48.128
62
7
0
LINE
8
Undeflected
10
1222.69
20
48.128
11
1222.8
21
48.1445
62
8
0
LINE
8
Undeflected
10
1222.43
20
48.0452
11
1222.49
21
48.0709
62
9
0
LINE
8
Undeflected
10
1222.2
20
47.6607
11
1222.07
21
47.7985
62
10
0
LINE
8
Undeflected
10
1222.69
20
48.1278
11
1222.49
21
48.0705
62
1
0
LINE
8
Undeflected
10
1222.41
20
48.0381
11
1222.36
21
48.0118
62
2
0
LINE
8
Undeflected
10
1222.87
20
48.1104
11
1222.82
21
47.956
62
3
0
LINE
8
Undeflected
10
1229.49
20
-43.8475
11
1229.66
21
-43.8446
62
4
0
LINE
8
Undeflected
10
1229.66
20
-43.8446
11
1229.54
21
-43.8466
62
5
0
LINE
8
Undeflected
10
1229.49
20
-43.8475
11
1229.61
21
-43.8455
62
6
0
LINE
8
Undeflected
10
1229.66
20
-43.8446
11
1229.49
21
-43.8475
62
7
0
LINE
8
Undeflected
10
1229.66
20
-43.8446
11
1229.49
21
-43.8475
62
8
0
LINE
8
Undeflected
10
1229.49
20
-43.8475
11
1229.66
21
-43.8446
62
9
0
LINE
8
Undeflected
10
1229.66
20
-43.8446
11
1229.54
21
-43.8466
62
10
0
LINE
8
Undeflected
10
1229.49
20
-43.8475
11
1229.61
21
-43.8455
62
1
0
LINE
8
Undeflected
10
1229.62
20
-42.5261
11
1230.77
21
-42.5262
62
2
0
LINE
8
Undeflected
10
1230.06
20
-41.1447
11
1230.06
21
-40.7611
62
3
0
LINE
8
Undeflected
10
1232.29
20
-36.3364
11
1234.7
21
-36.3364
62
4
0
LINE
8
Undeflected
10
1234.7
20
-36.3364
11
1234.93
21
-36.3405
62
5
0
LINE
8
Undeflected
10
1235.08
20
-36.35
11
1235.08
21
-36.05
62
6
0
LINE
8
Undeflected
10
1229.62
20
-42.9
11
1229.62
21
-42.7265
62
7
0
LINE
8
Undeflected
10
1229.62
20
-42.7047
11
1229.62
21
-42.5261
62
8
0
LINE
8
Undeflected
10
1230.45
20
-41.9188
11
1230.29
21
-42.0133
62
9
0
LINE
8
Undeflected
10
1229.72
20
-44.0458
11
1232.76
21
-47.0914
62
10
0
LINE
8
Undeflected
10
1232.76
20
-47.0914
11
1229.72
21
-44.0458
62
1
0
LINE
8
Undeflected
10
1229.8
20
-42.5706
11
1229.81
21
-42.6508
62
2
0
LINE
8
Undeflected
10
1249.06
20
-47.15
11
1232.9
21
-47.15
62
3
0
LINE
8
Undeflected
10
1232.9
20
-47.15
11
1249.06
21
-47.15
62
4
0
LINE
8
Undeflected
10
1249.65
20
-46.3301
11
1249.23
21
-47.05
62
5
0
LINE
8
Undeflected
10
1198.02
20
-28.9803
11
1072.38
21
-25.9412
62
6
0
LINE
8
Undeflected
10
1072.38
20
-25.9412
11
946.75
21
-22.902
62
7
0
LINE
8
Undeflected
10
946.75
20
-22.902
11
821.115
21
-19.8629
62
8
0
LINE
8
Undeflected
10
821.115
20
-19.8629
11
695.479
21
-16.8238
62
9
0
LINE
8
Undeflected
10
695.479
20
-16.8238
11
569.844
21
-13.7846
62
10
0
LINE
8
Undeflected
10
569.844
20
-13.7846
11
444.209
21
-10.7455
62
1
0
LINE
8
Undeflected
10
444.209
20
-10.7455
11
318.574
21
-7.70636
62
2
0
LINE
8
Undeflected
10
318.574
20
-7.70636
11
192.939
21
-4.66723
62
3
0
LINE
8
Undeflected
10
192.939
20
-4.66723
11
67.3039
21
-1.62809
62
4
0
LINE
8
Undeflected
10
1249.23
20
-47.05
11
1249.65
21
-46.3301
62
5
0
LINE
8
Undeflected
10
1249.06
20
-47.15
11
1249.06
21
-47.0924
62
6
0
LINE
8
Undeflected
10
1232.9
20
-47.15
11
1249.06
21
-47.15
62
7
0
LINE
8
Undeflected
10
1232.9
20
-47.15
11
1232.9
21
-47.15
62
8
0
LINE
8
Undeflected
10
1249.06
20
-47.15
11
1232.9
21
-47.15
62
9
0
LINE
8
Undeflected
10
1249.06
20
-47.15
11
1249.06
21
-47.15
62
10
0
LINE
8
Undeflected
10
1229.72
20
-44.0458
11
1232.76
21
-47.0914
62
1
0
LINE
8
Undeflected
10
1229.72
20
-44.0458
11
1232.76
21
-47.0914
62
2
0
LINE
8
Undeflected
10
1229.68
20
-44.0074
11
1229.73
21
-43.9545
62
3
0
LINE
8
Undeflected
10
1249.65
20
-45.9476
11
1249.12
21
-46.8647
62
4
0
LINE
8
Undeflected
10
1229.81
20
-42.7047
11
1229.81
21
-42.6508
62
5
0
LINE
8
Undeflected
10
1229.81
20
-42.6508
11
1229.8
21
-42.5706
62
6
0
LINE
8
Undeflected
10
1229.8
20
-42.5706
11
1231.01
21
-42.5812
62
7
0
LINE
8
Undeflected
10
1231.35
20
-42.5841
11
1231.52
21
-42.5856
62
8
0
LINE
8
Undeflected
10
1231.52
20
-42.5856
11
1231.57
21
-42.6126
62
9
0
LINE
8
Undeflected
10
1249.06
20
-47.0892
11
1249.06
21
-47.1499
62
10
0
LINE
8
Undeflected
10
1249.23
20
-47.05
11
1249.13
21
-46.99
62
1
0
LINE
8
Undeflected
10
1229.66
20
45.8779
11
1229.62
21
45.7732
62
2
0
LINE
8
Undeflected
10
1229.62
20
45.76
11
1229.66
21
45.8717
62
3
0
LINE
8
Undeflected
10
1229.72
20
-43.9217
11
1229.62
21
-43.7676
62
4
0
LINE
8
Undeflected
10
1229.62
20
-43.75
11
1229.71
21
-43.9183
62
5
0
LINE
8
Undeflected
10
1250.04
20
14.093
11
1250.36
21
14.0377
62
6
0
LINE
8
Undeflected
10
1250.36
20
14.0377
11
1250.66
21
13.8896
62
7
0
LINE
8
Undeflected
10
1250.66
20
13.8896
11
1250.89
21
13.6621
62
8
0
LINE
8
Undeflected
10
1250.89
20
13.6621
11
1251.05
21
13.3754
62
9
0
LINE
8
Undeflected
10
1251.05
20
13.3754
11
1251.11
21
13.0552
62
10
0
LINE
8
Undeflected
10
1251.11
20
13.0552
11
1251.08
21
12.7301
62
1
0
LINE
8
Undeflected
10
1251.08
20
12.7301
11
1250.95
21
12.4291
62
2
0
LINE
8
Undeflected
10
1250.95
20
12.4291
11
1250.74
21
12.179
62
3
0
LINE
8
Undeflected
10
1250.74
20
12.179
11
1250.47
21
12.0023
62
4
0
LINE
8
Undeflected
10
1250.47
20
12.0023
11
1250.15
21
11.9148
62
5
0
LINE
8
Undeflected
10
1250.15
20
11.9148
11
1250.04
21
11.907
62
6
0
LINE
8
Undeflected
10
1250
20
11.907
11
1249.68
21
11.9623
62
7
0
LINE
8
Undeflected
10
1249.68
20
11.9623
11
1249.38
21
12.1104
62
8
0
LINE
8
Undeflected
10
1249.38
20
12.1104
11
1249.15
21
12.3379
62
9
0
LINE
8
Undeflected
10
1249.15
20
12.3379
11
1248.99
21
12.6246
62
10
0
LINE
8
Undeflected
10
1248.99
20
12.6246
11
1248.93
21
12.9448
62
1
0
LINE
8
Undeflected
10
1248.93
20
12.9448
11
1248.96
21
13.2699
62
2
0
LINE
8
Undeflected
10
1248.96
20
13.2699
11
1249.09
21
13.5709
62
3
0
LINE
8
Undeflected
10
1249.09
20
13.5709
11
1249.3
21
13.821
62
4
0
LINE
8
Undeflected
10
1249.3
20
13.821
11
1249.57
21
13.9977
62
5
0
LINE
8
Undeflected
10
1249.57
20
13.9977
11
1249.89
21
14.0852
62
6
0
LINE
8
Undeflected
10
1249.89
20
14.0852
11
1250
21
14.093
62
7
0
LINE
8
Undeflected
10
1251.31
20
-12.2762
11
1251.25
21
-12.6571
62
8
0
LINE
8
Undeflected
10
1251.25
20
-12.6571
11
1251.07
21
-13.0016
62
9
0
LINE
8
Undeflected
10
1251.07
20
-13.0016
11
1250.8
21
-13.279
62
10
0
LINE
8
Undeflected
10
1250.8
20
-13.279
11
1250.46
21
-13.4645
62
1
0
LINE
8
Undeflected
10
1250.46
20
-13.4645
11
1250.09
21
-13.5415
62
2
0
LINE
8
Undeflected
10
1250.09
20
-13.5415
11
1249.7
21
-13.5031
62
3
0
LINE
8
Undeflected
10
1249.7
20
-13.5031
11
1249.34
21
-13.3528
62
4
0
LINE
8
Undeflected
10
1249.34
20
-13.3528
11
1249.05
21
-13.104
62
5
0
LINE
8
Undeflected
10
1249.05
20
-13.104
11
1248.84
21
-12.7788
62
6
0
LINE
8
Undeflected
10
1248.84
20
-12.7788
11
1248.74
21
-12.4065
62
7
0
LINE
8
Undeflected
10
1248.74
20
-12.4065
11
1248.73
21
-12.2776
62
8
0
LINE
8
Undeflected
10
1251.11
20
-11.75
11
1251.11
21
-12.25
62
9
0
LINE
8
Undeflected
10
1251.08
20
-12.2716
11
1251.03
21
-12.5842
62
10
0
LINE
8
Undeflected
10
1251.03
20
-12.5842
11
1250.88
21
-12.867
62
1
0
LINE
8
Undeflected
10
1250.88
20
-12.867
11
1250.66
21
-13.0946
62
2
0
LINE
8
Undeflected
10
1250.66
20
-13.0946
11
1250.38
21
-13.2468
62
3
0
LINE
8
Undeflected
10
1250.38
20
-13.2468
11
1250.07
21
-13.31
62
4
0
LINE
8
Undeflected
10
1260.8
20
-29.4
11
1260.8
21
-29.4
62
5
0
LINE
8
Undeflected
10
1260.8
20
-29.4
11
1260.97
21
-29.4
62
6
0
LINE
8
Undeflected
10
1260.97
20
-29.4
11
1260.8
21
-29.4
62
7
0
LINE
8
Undeflected
10
1260.8
20
-29.4
11
1261.17
21
-29.4
62
8
0
LINE
8
Undeflected
10
1261.27
20
-29.4
11
1261.54
21
-29.4
62
9
0
LINE
8
Undeflected
10
1261.54
20
-29.4
11
1261.57
21
-29.4
62
10
0
LINE
8
Undeflected
10
1261.57
20
-29.4
11
1261.38
21
-29.4
62
1
0
LINE
8
Undeflected
10
1261.38
20
-29.4
11
1261.32
21
-29.4
62
2
0
LINE
8
Undeflected
10
1261.17
20
-29.4
11
1260.8
21
-29.4
62
3
0
LINE
8
Undeflected
10
1260.8
20
-29.4
11
1261.17
21
-29.4
62
4
0
LINE
8
Undeflected
10
1261.81
20
-29.4
11
1261.17
21
-29.4
62
5
0
LINE
8
Undeflected
10
1261.17
20
-29.4
11
1260.8
21
-29.4
62
6
0
LINE
8
Undeflected
10
1261.27
20
-29.1052
11
1261.21
21
-29.3664
62
7
0
LINE
8
Undeflected
10
1261.81
20
-29.4
11
1261.96
21
-29.2606
62
8
0
LINE
8
Undeflected
10
1261.96
20
-29.2526
11
1261.82
21
-29.3998
62
9
0
LINE
8
Undeflected
10
1261.96
20
-29.2526
11
1261.97
21
-29.1132
62
10
0
LINE
8
Undeflected
10
1261.97
20
-29.1052
11
1261.96
21
-29.2524
62
1
0
LINE
8
Undeflected
10
1262.06
20
-23.5825
11
1261.97
21
-29.1052
62
2
0
LINE
8
Undeflected
10
1261.97
20
-29.1052
11
1262.06
21
-23.5825
62
3
0
LINE
8
Undeflected
10
1262.06
20
-23.5825
11
1261.92
21
-23.5827
62
4
0
LINE
8
Undeflected
10
1261.91
20
-23.5826
11
1261.82
21
-29.1052
62
5
0
LINE
8
Undeflected
10
1261.97
20
-29.1052
11
1261.83
21
-29.1054
62
6
0
LINE
8
Undeflected
10
1261.82
20
-29.1052
11
1261.81
21
-29.3856
62
7
0
LINE
8
Undeflected
10
1261.81
20
-29.3856
11
1261.81
21
-29.3964
62
8
0
LINE
8
Undeflected
10
1261.82
20
-29.1052
11
1261.27
21
-29.1052
62
9
0
LINE
8
Undeflected
10
1261.17
20
-29.4
11
1261.26
21
-29.237
62
10
0
LINE
8
Undeflected
10
1261.26
20
-29.237
11
1261.27
21
-29.1052
62
1
0
LINE
8
Undeflected
10
1261.27
20
-29.1052
11
1261.28
21
-24.0965
62
2
0
LINE
8
Undeflected
10
1261.28
20
-24.0965
11
1261.06
21
-23.918
62
3
0
LINE
8
Undeflected
10
1261.06
20
-23.918
11
1260.96
21
-23.9
62
4
0
LINE
8
Undeflected
10
1260.96
20
-23.9
11
1260.6
21
-23.9
62
5
0
LINE
8
Undeflected
10
1260.6
20
-23.9
11
1260.7
21
-22.7693
62
6
0
LINE
8
Undeflected
10
1260.7
20
-22.7693
11
1260.8
21
-22.3381
62
7
0
LINE
8
Undeflected
10
1260.8
20
-22.3381
11
1261.03
21
-21.956
62
8
0
LINE
8
Undeflected
10
1261.03
20
-21.956
11
1261.35
21
-21.6564
62
9
0
LINE
8
Undeflected
10
1261.35
20
-21.6564
11
1261.75
21
-21.4655
62
10
0
LINE
8
Undeflected
10
1261.75
20
-21.4655
11
1262.19
21
-21.4
62
1
0
LINE
8
Undeflected
10
1262.19
20
-21.4
11
1269.6
21
-21.4
62
2
0
LINE
8
Undeflected
10
1269.6
20
-21.4
11
1269.58
21
-22.4526
62
3
0
LINE
8
Undeflected
10
1269.58
20
-22.4526
11
1263.06
21
-22.4526
62
4
0
LINE
8
Undeflected
10
1263.06
20
-22.4526
11
1262.71
21
-22.5081
62
5
0
LINE
8
Undeflected
10
1262.71
20
-22.5081
11
1262.39
21
-22.6679
62
6
0
LINE
8
Undeflected
10
1262.39
20
-22.6679
11
1262.14
21
-22.9166
62
7
0
LINE
8
Undeflected
10
1262.14
20
-22.9166
11
1261.97
21
-23.231
62
8
0
LINE
8
Undeflected
10
1261.97
20
-23.231
11
1261.91
21
-23.5826
62
9
0
LINE
8
Undeflected
10
1261.02
20
-23.9073
11
1261.04
21
-23.9126
62
10
0
LINE
8
Undeflected
10
1261.13
20
-23.9571
11
1261.26
21
-24.0776
62
1
0
LINE
8
Undeflected
10
1269.6
20
-21.4
11
1262.19
21
-21.4
62
2
0
LINE
8
Undeflected
10
1262.19
20
-21.4
11
1261.75
21
-21.4655
62
3
0
LINE
8
Undeflected
10
1261.75
20
-21.4655
11
1261.35
21
-21.6564
62
4
0
LINE
8
Undeflected
10
1261.35
20
-21.6564
11
1261.03
21
-21.956
62
5
0
LINE
8
Undeflected
10
1261.03
20
-21.956
11
1260.8
21
-22.3381
62
6
0
LINE
8
Undeflected
10
1260.8
20
-22.3381
11
1260.7
21
-22.7693
62
7
0
LINE
8
Undeflected
10
1263.06
20
-22.6
11
1262.76
21
-22.6479
62
8
0
LINE
8
Undeflected
10
1262.12
20
-23.2752
11
1262.06
21
-23.5798
62
9
0
LINE
8
Undeflected
10
1262.06
20
-23.5825
11
1262.18
21
-23.1352
62
10
0
LINE
8
Undeflected
10
1262.18
20
-23.1352
11
1262.48
21
-22.7869
62
1
0
LINE
8
Undeflected
10
1262.48
20
-22.7869
11
1262.91
21
-22.612
62
2
0
LINE
8
Undeflected
10
1262.91
20
-22.612
11
1263.06
21
-22.6
62
3
0
LINE
8
Undeflected
10
1263.06
20
-22.4526
11
1263.06
21
-22.5998
62
4
0
LINE
8
Undeflected
10
1269.58
20
-22.4526
11
1269.58
21
-22.5998
62
5
0
LINE
8
Undeflected
10
1263.06
20
-22.6
11
1269.58
21
-22.6
62
6
0
LINE
8
Undeflected
10
1269.58
20
-22.6
11
1263.06
21
-22.6
62
7
0
LINE
8
Undeflected
10
1269.58
20
-22.6
11
1269.73
21
-22.6
62
8
0
LINE
8
Undeflected
10
1269.73
20
-22.6
11
1269.73
21
-22.6
62
9
0
LINE
8
Undeflected
10
1269.73
20
-22.6
11
1269.86
21
-22.6
62
10
0
LINE
8
Undeflected
10
1269.86
20
-22.6
11
1270.18
21
-22.6
62
1
0
LINE
8
Undeflected
10
1270.18
20
-22.6
11
1272.49
21
-22.6
62
2
0
LINE
8
Undeflected
10
1272.49
20
-22.6
11
1272.64
21
-22.6
62
3
0
LINE
8
Undeflected
10
1272.64
20
-22.6
11
1272.49
21
-22.6
62
4
0
LINE
8
Undeflected
10
1272.49
20
-22.6
11
1270.18
21
-22.6
62
5
0
LINE
8
Undeflected
10
1270.18
20
-22.6
11
1269.86
21
-22.6
62
6
0
LINE
8
Undeflected
10
1269.86
20
-22.6
11
1269.73
21
-22.6
62
7
0
LINE
8
Undeflected
10
1269.73
20
-22.6
11
1269.73
21
-22.6
62
8
0
LINE
8
Undeflected
10
1269.73
20
-22.6
11
1269.59
21
-22.6
62
9
0
LINE
8
Undeflected
10
1272.49
20
-22.6
11
1272.49
21
-22.4606
62
10
0
LINE
8
Undeflected
10
1272.79
20
-22.4631
11
1272.65
21
-22.5995
62
1
0
LINE
8
Undeflected
10
1272.79
20
-22.4631
11
1272.79
21
-22.4631
62
2
0
LINE
8
Undeflected
10
1272.64
20
-22.6
11
1272.79
21
-22.4755
62
3
0
LINE
8
Undeflected
10
1272.49
20
-22.4526
11
1272.49
21
-22.5998
62
4
0
LINE
8
Undeflected
10
1272.49
20
-22.4526
11
1270.18
21
-22.4526
62
5
0
LINE
8
Undeflected
10
1270.18
20
-22.6
11
1270.18
21
-22.4606
62
6
0
LINE
8
Undeflected
10
1269.9
20
-21.4
11
1269.88
21
-22.4526
62
7
0
LINE
8
Undeflected
10
1269.6
20
-21.4
11
1269.89
21
-21.4
62
8
0
LINE
8
Undeflected
10
1269.89
20
-21.4
11
1269.9
21
-21.4
62
9
0
LINE
8
Undeflected
10
1269.88
20
-22.4526
11
1269.67
21
-22.4533
62
10
0
LINE
8
Undeflected
10
1269.67
20
-22.4533
11
1269.58
21
-22.4526
62
1
0
LINE
8
Undeflected
10
1269.9
20
-21.4
11
1269.69
21
-21.4
62
2
0
LINE
8
Undeflected
10
1269.69
20
-21.4
11
1269.6
21
-21.4
62
3
0
LINE
8
Undeflected
10
1269.9
20
-21.4
11
1269.88
21
-22.4526
62
4
0
LINE
8
Undeflected
10
1269.88
20
-22.4526
11
1269.9
21
-21.4
62
5
0
LINE
8
Undeflected
10
1272.79
20
-22.4631
11
1272.88
21
-21.4
62
6
0
LINE
8
Undeflected
10
1272.88
20
-21.4
11
1272.89
21
-21.3356
62
7
0
LINE
8
Undeflected
10
1272.89
20
-21.3356
11
1272.88
21
-21.4
62
8
0
LINE
8
Undeflected
10
1272.82
20
-22.1128
11
1272.83
21
-21.9889
62
9
0
LINE
8
Undeflected
10
1272.88
20
-21.4
11
1272.89
21
-21.3356
62
10
0
LINE
8
Undeflected
10
1272.89
20
-21.3356
11
1272.88
21
-21.4
62
1
0
LINE
8
Undeflected
10
1272.58
20
-21.4
11
1272.87
21
-21.4
62
2
0
LINE
8
Undeflected
10
1272.87
20
-21.4
11
1272.88
21
-21.4
62
3
0
LINE
8
Undeflected
10
1272.58
20
-21.4
11
1272.49
21
-22.4526
62
4
0
LINE
8
Undeflected
10
1272.79
20
-22.4631
11
1272.58
21
-22.4565
62
5
0
LINE
8
Undeflected
10
1272.58
20
-22.4565
11
1272.49
21
-22.4526
62
6
0
LINE
8
Undeflected
10
1270.18
20
-22.4526
11
1270.2
21
-21.4
62
7
0
LINE
8
Undeflected
10
1270.2
20
-21.4
11
1272.58
21
-21.4
62
8
0
LINE
8
Undeflected
10
1269.9
20
-21.4
11
1269.88
21
-22.4526
62
9
0
LINE
8
Undeflected
10
1273.41
20
-21.2882
11
1273.28
21
-21.3589
62
10
0
LINE
8
Undeflected
10
1273.24
20
-21.3808
11
1273.13
21
-21.4746
62
1
0
LINE
8
Undeflected
10
1273.03
20
-21.5813
11
1272.84
21
-21.9798
62
2
0
LINE
8
Undeflected
10
1272.82
20
-22.1128
11
1272.95
21
-21.6925
62
3
0
LINE
8
Undeflected
10
1272.95
20
-21.6925
11
1273.26
21
-21.371
62
4
0
LINE
8
Undeflected
10
1273.26
20
-21.371
11
1273.39
21
-21.2974
62
5
0
LINE
8
Undeflected
10
1272.87
20
-21.5441
11
1273.1
21
-21.3008
62
6
0
LINE
8
Undeflected
10
1229.66
20
45.8779
11
1229.62
21
45.7678
62
7
0
LINE
8
Undeflected
10
1229.62
20
45.76
11
1229.65
21
45.8673
62
8
0
LINE
8
Undeflected
10
1229.82
20
-43.8505
11
1229.82
21
-43.8828
62
9
0
LINE
8
Undeflected
10
1229.77
20
-43.9427
11
1229.62
21
-43.7501
62
10
0
LINE
8
Undeflected
10
1229.62
20
-43.75
11
1229.76
21
-43.9402
62
1
0
LINE
8
Undeflected
10
1230.77
20
-42.5262
11
1229.62
21
-42.5261
62
2
0
LINE
8
Undeflected
10
1229.62
20
-42.5261
11
1229.62
21
-42.7047
62
3
0
LINE
8
Undeflected
10
1229.62
20
-42.7265
11
1229.62
21
-42.9
62
4
0
LINE
8
Undeflected
10
1229.62
20
-42.9
11
1229.53
21
-42.6848
62
5
0
LINE
8
Undeflected
10
1235.08
20
-36.05
11
1235.08
21
-36.3496
62
6
0
LINE
8
Undeflected
10
1235.08
20
-36.3496
11
1234.74
21
-36.3366
62
7
0
LINE
8
Undeflected
10
1234.74
20
-36.3366
11
1234.7
21
-36.3364
62
8
0
LINE
8
Undeflected
10
1234.7
20
-36.3364
11
1232.29
21
-36.3364
62
9
0
LINE
8
Undeflected
10
1230.06
20
-40.7611
11
1230.06
21
-41.1447
62
10
0
LINE
8
Undeflected
10
1230.06
20
-41.1447
11
1230.1
21
-41.5099
62
1
0
LINE
8
Undeflected
10
1230.1
20
-41.5099
11
1230.21
21
-41.8537
62
2
0
LINE
8
Undeflected
10
1230.21
20
-41.8537
11
1230.29
21
-42.0133
62
3
0
LINE
8
Undeflected
10
1230.77
20
-42.5262
11
1230.51
21
-42.2989
62
4
0
LINE
8
Undeflected
10
1230.51
20
-42.2989
11
1230.29
21
-42.0133
62
5
0
LINE
8
Undeflected
10
1231.32
20
-42.6181
11
1230.98
21
-42.5754
62
6
0
LINE
8
Undeflected
10
1230.98
20
-42.5754
11
1230.77
21
-42.5262
62
7
0
LINE
8
Undeflected
10
1231.62
20
-42.6137
11
1231.32
21
-42.6181
62
8
0
LINE
8
Undeflected
10
1230.45
20
-41.9188
11
1230.72
21
-42.2533
62
9
0
LINE
8
Undeflected
10
1230.72
20
-42.2533
11
1231.07
21
-42.4917
62
10
0
LINE
8
Undeflected
10
1231.07
20
-42.4917
11
1231.48
21
-42.6061
62
1
0
LINE
8
Undeflected
10
1231.48
20
-42.6061
11
1231.62
21
-42.6137
62
2
0
LINE
8
Undeflected
10
1230.29
20
-42.0133
11
1230.45
21
-41.9188
62
3
0
LINE
8
Undeflected
10
1250.5
20
-9.64766
11
1250.77
21
-9.82622
62
4
0
LINE
8
Undeflected
10
1250.77
20
-9.82622
11
1251.09
21
-9.92346
62
5
0
LINE
8
Undeflected
10
1251.09
20
-9.92346
11
1251.25
21
-9.9389
62
6
0
LINE
8
Undeflected
10
1251.31
20
-11.7238
11
1251.25
21
-11.3429
62
7
0
LINE
8
Undeflected
10
1251.25
20
-11.3429
11
1251.07
21
-10.9984
62
8
0
LINE
8
Undeflected
10
1251.07
20
-10.9984
11
1250.8
21
-10.721
62
9
0
LINE
8
Undeflected
10
1250.8
20
-10.721
11
1250.46
21
-10.5355
62
10
0
LINE
8
Undeflected
10
1250.46
20
-10.5355
11
1250.09
21
-10.4585
62
1
0
LINE
8
Undeflected
10
1250.09
20
-10.4585
11
1249.7
21
-10.4969
62
2
0
LINE
8
Undeflected
10
1249.7
20
-10.4969
11
1249.34
21
-10.6472
62
3
0
LINE
8
Undeflected
10
1249.34
20
-10.6472
11
1249.05
21
-10.896
62
4
0
LINE
8
Undeflected
10
1249.05
20
-10.896
11
1248.84
21
-11.2212
62
5
0
LINE
8
Undeflected
10
1248.84
20
-11.2212
11
1248.74
21
-11.5935
62
6
0
LINE
8
Undeflected
10
1248.74
20
-11.5935
11
1248.73
21
-11.7224
62
7
0
LINE
8
Undeflected
10
1248.73
20
-11.75
11
1248.73
21
-12.25
62
8
0
LINE
8
Undeflected
10
1248.73
20
-12.2762
11
1248.79
21
-12.6571
62
9
0
LINE
8
Undeflected
10
1248.79
20
-12.6571
11
1248.97
21
-13.0016
62
10
0
LINE
8
Undeflected
10
1248.97
20
-13.0016
11
1249.24
21
-13.279
62
1
0
LINE
8
Undeflected
10
1249.24
20
-13.279
11
1249.58
21
-13.4645
62
2
0
LINE
8
Undeflected
10
1249.58
20
-13.4645
11
1249.95
21
-13.5415
62
3
0
LINE
8
Undeflected
10
1249.95
20
-13.5415
11
1250.34
21
-13.5031
62
4
0
LINE
8
Undeflected
10
1250.34
20
-13.5031
11
1250.7
21
-13.3528
62
5
0
LINE
8
Undeflected
10
1250.7
20
-13.3528
11
1250.99
21
-13.104
62
6
0
LINE
8
Undeflected
10
1250.99
20
-13.104
11
1251.2
21
-12.7788
62
7
0
LINE
8
Undeflected
10
1251.2
20
-12.7788
11
1251.3
21
-12.4065
62
8
0
LINE
8
Undeflected
10
1251.3
20
-12.4065
11
1251.31
21
-12.2776
62
9
0
LINE
8
Undeflected
10
1251.31
20
-12.25
11
1251.31
21
-11.75
62
10
0
LINE
8
Undeflected
10
1248.93
20
-11.75
11
1248.73
21
-11.75
62
1
0
LINE
8
Undeflected
10
1250.02
20
-10.6567
11
1249.7
21
-10.7056
62
2
0
LINE
8
Undeflected
10
1249.7
20
-10.7056
11
1249.4
21
-10.8477
62
3
0
LINE
8
Undeflected
10
1249.4
20
-10.8477
11
1249.16
21
-11.0704
62
4
0
LINE
8
Undeflected
10
1249.16
20
-11.0704
11
1249
21
-11.3538
62
5
0
LINE
8
Undeflected
10
1249
20
-11.3538
11
1248.93
21
-11.6727
62
6
0
LINE
8
Undeflected
10
1251.11
20
-11.7278
11
1251.06
21
-11.4058
62
7
0
LINE
8
Undeflected
10
1251.06
20
-11.4058
11
1250.91
21
-11.1145
62
8
0
LINE
8
Undeflected
10
1250.91
20
-11.1145
11
1250.68
21
-10.88
62
9
0
LINE
8
Undeflected
10
1250.68
20
-10.88
11
1250.4
21
-10.7232
62
10
0
LINE
8
Undeflected
10
1250.4
20
-10.7232
11
1250.08
21
-10.6581
62
1
0
LINE
8
Undeflected
10
1251.31
20
-11.75
11
1251.11
21
-11.75
62
2
0
LINE
8
Undeflected
10
1251.11
20
-12.25
11
1251.31
21
-12.25
62
3
0
LINE
8
Undeflected
10
1250.02
20
-13.3433
11
1250.34
21
-13.2944
62
4
0
LINE
8
Undeflected
10
1250.34
20
-13.2944
11
1250.64
21
-13.1523
62
5
0
LINE
8
Undeflected
10
1250.64
20
-13.1523
11
1250.88
21
-12.9296
62
6
0
LINE
8
Undeflected
10
1250.88
20
-12.9296
11
1251.04
21
-12.6462
62
7
0
LINE
8
Undeflected
10
1251.04
20
-12.6462
11
1251.11
21
-12.3273
62
8
0
LINE
8
Undeflected
10
1248.93
20
-12.2722
11
1248.98
21
-12.5942
62
9
0
LINE
8
Undeflected
10
1248.98
20
-12.5942
11
1249.13
21
-12.8855
62
10
0
LINE
8
Undeflected
10
1249.13
20
-12.8855
11
1249.36
21
-13.12
62
1
0
LINE
8
Undeflected
10
1249.36
20
-13.12
11
1249.64
21
-13.2768
62
2
0
LINE
8
Undeflected
10
1249.64
20
-13.2768
11
1249.96
21
-13.3419
62
3
0
LINE
8
Undeflected
10
1248.73
20
-12.25
11
1248.93
21
-12.25
62
4
0
LINE
8
Undeflected
10
1251.08
20
-11.7284
11
1251.03
21
-11.4158
62
5
0
LINE
8
Undeflected
10
1251.03
20
-11.4158
11
1250.88
21
-11.133
62
6
0
LINE
8
Undeflected
10
1250.88
20
-11.133
11
1250.66
21
-10.9054
62
7
0
LINE
8
Undeflected
10
1250.66
20
-10.9054
11
1250.38
21
-10.7532
62
8
0
LINE
8
Undeflected
10
1250.38
20
-10.7532
11
1250.07
21
-10.69
62
9
0
LINE
8
Undeflected
10
1250.02
20
-10.6887
11
1249.71
21
-10.7361
62
10
0
LINE
8
Undeflected
10
1249.71
20
-10.7361
11
1249.42
21
-10.874
62
1
0
LINE
8
Undeflected
10
1249.42
20
-10.874
11
1249.19
21
-11.0903
62
2
0
LINE
8
Undeflected
10
1249.19
20
-11.0903
11
1249.03
21
-11.3654
62
3
0
LINE
8
Undeflected
10
1249.03
20
-11.3654
11
1248.96
21
-11.6749
62
4
0
LINE
8
Undeflected
10
1248.96
20
-11.75
11
1248.93
21
-11.75
62
5
0
LINE
8
Undeflected
10
1251.11
20
-11.75
11
1251.08
21
-11.75
62
6
0
LINE
8
Undeflected
10
1248.96
20
-12.2716
11
1249.01
21
-12.5842
62
7
0
LINE
8
Undeflected
10
1249.01
20
-12.5842
11
1249.16
21
-12.867
62
8
0
LINE
8
Undeflected
10
1249.16
20
-12.867
11
1249.38
21
-13.0946
62
9
0
LINE
8
Undeflected
10
1249.38
20
-13.0946
11
1249.66
21
-13.2468
62
10
0
LINE
8
Undeflected
10
1249.66
20
-13.2468
11
1249.97
21
-13.31
62
1
0
LINE
8
Undeflected
10
1250.02
20
-13.3113
11
1250.33
21
-13.2639
62
2
0
LINE
8
Undeflected
10
1250.33
20
-13.2639
11
1250.62
21
-13.126
62
3
0
LINE
8
Undeflected
10
1250.62
20
-13.126
11
1250.85
21
-12.9097
62
4
0
LINE
8
Undeflected
10
1250.85
20
-12.9097
11
1251.01
21
-12.6346
62
5
0
LINE
8
Undeflected
10
1251.01
20
-12.6346
11
1251.08
21
-12.3251
62
6
0
LINE
8
Undeflected
10
1251.08
20
-12.25
11
1251.11
21
-12.25
62
7
0
LINE
8
Undeflected
10
1248.93
20
-12.25
11
1248.96
21
-12.25
62
8
0
LINE
8
Undeflected
10
1250.05
20
11.7071
11
1250.43
21
11.7726
62
9
0
LINE
8
Undeflected
10
1250.43
20
11.7726
11
1250.77
21
11.9478
62
10
0
LINE
8
Undeflected
10
1250.77
20
11.9478
11
1251.05
21
12.2169
62
1
0
LINE
8
Undeflected
10
1251.05
20
12.2169
11
1251.23
21
12.556
62
2
0
LINE
8
Undeflected
10
1251.23
20
12.556
11
1251.31
21
12.9347
62
3
0
LINE
8
Undeflected
10
1251.31
20
12.9347
11
1251.27
21
13.3193
62
4
0
LINE
8
Undeflected
10
1251.27
20
13.3193
11
1251.12
21
13.6753
62
5
0
LINE
8
Undeflected
10
1251.12
20
13.6753
11
1250.87
21
13.9711
62
6
0
LINE
8
Undeflected
10
1250.87
20
13.9711
11
1250.55
21
14.1801
62
7
0
LINE
8
Undeflected
10
1250.55
20
14.1801
11
1250.18
21
14.2836
62
8
0
LINE
8
Undeflected
10
1250.18
20
14.2836
11
1250.05
21
14.2928
62
9
0
LINE
8
Undeflected
10
1249.99
20
14.2929
11
1249.61
21
14.2274
62
10
0
LINE
8
Undeflected
10
1249.61
20
14.2274
11
1249.27
21
14.0522
62
1
0
LINE
8
Undeflected
10
1249.27
20
14.0522
11
1248.99
21
13.7831
62
2
0
LINE
8
Undeflected
10
1248.99
20
13.7831
11
1248.81
21
13.444
62
3
0
LINE
8
Undeflected
10
1248.81
20
13.444
11
1248.73
21
13.0653
62
4
0
LINE
8
Undeflected
10
1248.73
20
13.0653
11
1248.77
21
12.6807
62
5
0
LINE
8
Undeflected
10
1248.77
20
12.6807
11
1248.92
21
12.3247
62
6
0
LINE
8
Undeflected
10
1248.92
20
12.3247
11
1249.17
21
12.0289
62
7
0
LINE
8
Undeflected
10
1249.17
20
12.0289
11
1249.49
21
11.8199
62
8
0
LINE
8
Undeflected
10
1249.49
20
11.8199
11
1249.86
21
11.7164
62
9
0
LINE
8
Undeflected
10
1249.86
20
11.7164
11
1249.99
21
11.7072
62
10
0
LINE
8
Undeflected
10
1250.02
20
14.2931
11
1250.02
21
14.0936
62
1
0
LINE
8
Undeflected
10
1250.04
20
11.907
11
1250.36
21
11.9623
62
2
0
LINE
8
Undeflected
10
1250.36
20
11.9623
11
1250.66
21
12.1104
62
3
0
LINE
8
Undeflected
10
1250.66
20
12.1104
11
1250.89
21
12.3379
62
4
0
LINE
8
Undeflected
10
1250.89
20
12.3379
11
1251.05
21
12.6246
62
5
0
LINE
8
Undeflected
10
1251.05
20
12.6246
11
1251.11
21
12.9448
62
6
0
LINE
8
Undeflected
10
1251.11
20
12.9448
11
1251.08
21
13.2699
62
7
0
LINE
8
Undeflected
10
1251.08
20
13.2699
11
1250.95
21
13.5709
62
8
0
LINE
8
Undeflected
10
1250.95
20
13.5709
11
1250.74
21
13.821
62
9
0
LINE
8
Undeflected
10
1250.74
20
13.821
11
1250.47
21
13.9977
62
10
0
LINE
8
Undeflected
10
1250.47
20
13.9977
11
1250.15
21
14.0852
62
1
0
LINE
8
Undeflected
10
1250.15
20
14.0852
11
1250.04
21
14.093
62
2
0
LINE
8
Undeflected
10
1250.02
20
11.7069
11
1250.02
21
11.9064
62
3
0
LINE
8
Undeflected
10
1250
20
14.093
11
1249.68
21
14.0377
62
4
0
LINE
8
Undeflected
10
1249.68
20
14.0377
11
1249.38
21
13.8896
62
5
0
LINE
8
Undeflected
10
1249.38
20
13.8896
11
1249.15
21
13.6621
62
6
0
LINE
8
Undeflected
10
1249.15
20
13.6621
11
1248.99
21
13.3754
62
7
0
LINE
8
Undeflected
10
1248.99
20
13.3754
11
1248.93
21
13.0552
62
8
0
LINE
8
Undeflected
10
1248.93
20
13.0552
11
1248.96
21
12.7301
62
9
0
LINE
8
Undeflected
10
1248.96
20
12.7301
11
1249.09
21
12.4291
62
10
0
LINE
8
Undeflected
10
1249.09
20
12.4291
11
1249.3
21
12.179
62
1
0
LINE
8
Undeflected
10
1249.3
20
12.179
11
1249.57
21
12.0023
62
2
0
LINE
8
Undeflected
10
1249.57
20
12.0023
11
1249.89
21
11.9148
62
3
0
LINE
8
Undeflected
10
1249.89
20
11.9148
11
1250
21
11.907
62
4
0
LINE
8
Undeflected
10
1250.02
20
14.0613
11
1249.71
21
14.0139
62
5
0
LINE
8
Undeflected
10
1249.71
20
14.0139
11
1249.42
21
13.876
62
6
0
LINE
8
Undeflected
10
1249.42
20
13.876
11
1249.19
21
13.6597
62
7
0
LINE
8
Undeflected
10
1249.19
20
13.6597
11
1249.03
21
13.3846
62
8
0
LINE
8
Undeflected
10
1249.03
20
13.3846
11
1248.96
21
13.0751
62
9
0
LINE
8
Undeflected
10
1248.96
20
13.0751
11
1248.99
21
12.7589
62
10
0
LINE
8
Undeflected
10
1248.99
20
12.7589
11
1249.1
21
12.4642
62
1
0
LINE
8
Undeflected
10
1249.1
20
12.4642
11
1249.3
21
12.2174
62
2
0
LINE
8
Undeflected
10
1249.3
20
12.2174
11
1249.57
21
12.0405
62
3
0
LINE
8
Undeflected
10
1249.57
20
12.0405
11
1249.87
21
11.9493
62
4
0
LINE
8
Undeflected
10
1249.87
20
11.9493
11
1249.98
21
11.9396
62
5
0
LINE
8
Undeflected
10
1250.02
20
11.9387
11
1250.02
21
11.9067
62
6
0
LINE
8
Undeflected
10
1250.02
20
14.0933
11
1250.02
21
14.0613
62
7
0
LINE
8
Undeflected
10
1229.66
20
45.8446
11
1229.49
21
45.8475
62
8
0
LINE
8
Undeflected
10
1229.49
20
45.8475
11
1229.66
21
45.8446
62
9
0
LINE
8
Undeflected
10
1229.66
20
45.8446
11
1229.54
21
45.8466
62
10
0
LINE
8
Undeflected
10
1229.49
20
45.8475
11
1229.61
21
45.8455
62
1
0
LINE
8
Undeflected
10
1281.74
20
-1.263
11
1281.67
21
-1.26296
62
2
0
LINE
8
Undeflected
10
1281.65
20
-1.26295
11
1281.63
21
-1.26293
62
3
0
LINE
8
Undeflected
10
1281.63
20
-1.26293
11
1281.61
21
-1.26292
62
4
0
LINE
8
Undeflected
10
1281.61
20
-1.26292
11
1281.25
21
-1.26269
62
5
0
LINE
8
Undeflected
10
1281.25
20
-1.26269
11
1280.88
21
-1.26245
62
6
0
LINE
8
Undeflected
10
1280.88
20
-1.26245
11
1280.52
21
-1.26222
62
7
0
LINE
8
Undeflected
10
1280.52
20
-1.26222
11
1280.4
21
-1.26214
62
8
0
LINE
8
Undeflected
10
1280.4
20
-1.26214
11
1280.4
21
-1.25524
62
9
0
LINE
8
Undeflected
10
1280.4
20
-1.25524
11
1281.54
21
-1.25026
62
10
0
LINE
8
Undeflected
10
1281.54
20
-1.25026
11
1281.67
21
-1.25
62
1
0
LINE
8
Undeflected
10
1281.68
20
-1.25
11
1281.74
21
-1.25
62
2
0
LINE
8
Undeflected
10
1289.54
20
-0.491274
11
1289.5
21
-0.491274
62
3
0
LINE
8
Undeflected
10
1289.5
20
-0.491274
11
1289.37
21
-0.491274
62
4
0
LINE
8
Undeflected
10
1289.54
20
-0.491274
11
1289.54
21
-0.605884
62
5
0
LINE
8
Undeflected
10
1290.04
20
0
11
1289.72
21
-0.117579
62
6
0
LINE
8
Undeflected
10
1289.72
20
-0.117579
11
1289.55
21
-0.415016
62
7
0
LINE
8
Undeflected
10
1289.55
20
-0.415016
11
1289.54
21
-0.464631
62
8
0
LINE
8
Undeflected
10
1290.04
20
0
11
1289.98
21
0
62
9
0
LINE
8
Undeflected
10
1289.98
20
0
11
1289.83
21
0
62
10
0
LINE
8
Undeflected
10
1289.83
20
0
11
1289.58
21
0
62
1
0
LINE
8
Undeflected
10
1289.58
20
0
11
1289.25
21
0
62
2
0
LINE
8
Undeflected
10
1282.34
20
-6.69698e-07
11
1282.46
21
-7.13591e-07
62
3
0
LINE
8
Undeflected
10
1282.3
20
3.76906e-06
11
1281.53
21
4.5544e-06
62
4
0
LINE
8
Undeflected
10
1290.06
20
0
11
1290.04
21
0
62
5
0
LINE
8
Undeflected
10
1290.06
20
0
11
1291.19
21
-9.8962e-07
62
6
0
LINE
8
Undeflected
10
1291.69
20
-0.432518
11
1291.64
21
-0.288841
62
7
0
LINE
8
Undeflected
10
1291.64
20
-0.285707
11
1291.51
21
-0.110881
62
8
0
LINE
8
Undeflected
10
1291.5
20
-0.10574
11
1291.38
21
-0.0353356
62
9
0
LINE
8
Undeflected
10
1291.36
20
-0.0285654
11
1291.23
21
-0.00128857
62
10
0
LINE
8
Undeflected
10
1291.69
20
-0.491274
11
1291.69
21
-0.433309
62
1
0
LINE
8
Undeflected
10
1291.36
20
-0.0285689
11
1291.21
21
-0.000393521
62
2
0
LINE
8
Undeflected
10
1291.66
20
-0.999296
11
1291.7
21
-0.99992
62
3
0
LINE
8
Undeflected
10
1291.69
20
-0.491274
11
1291.7
21
-1
62
4
0
LINE
8
Undeflected
10
1291.63
20
-0.430025
11
1291.68
21
-0.430629
62
5
0
LINE
8
Undeflected
10
1291.49
20
-0.43147
11
1291.62
21
-0.430043
62
6
0
LINE
8
Undeflected
10
1291.49
20
-0.572996
11
1291.49
21
-0.43147
62
7
0
LINE
8
Undeflected
10
1291.7
20
-2.18064
11
1291.68
21
-2.18064
62
8
0
LINE
8
Undeflected
10
1291.7
20
-1
11
1291.7
21
-2.18064
62
9
0
LINE
8
Undeflected
10
1291.68
20
-2.30349
11
1291.65
21
-0.76541
62
10
0
LINE
8
Undeflected
10
1291.7
20
-6
11
1291.7
21
-4.32078
62
1
0
LINE
8
Undeflected
10
1291.7
20
-2.67922
11
1291.7
21
-2.18066
62
2
0
LINE
8
Undeflected
10
1291.7
20
-2.17962
11
1291.7
21
-1
62
3
0
LINE
8
Undeflected
10
1291.7
20
-4.81936
11
1291.7
21
-6
62
4
0
LINE
8
Undeflected
10
1291.7
20
-4.32078
11
1291.7
21
-4.67403
62
5
0
LINE
8
Undeflected
10
1291.7
20
-4.67403
11
1291.7
21
-4.8204
62
6
0
LINE
8
Undeflected
10
1291.7
20
-4.32078
11
1291.7
21
-3.5
62
7
0
LINE
8
Undeflected
10
1291.7
20
-3.49998
11
1291.7
21
-2.67922
62
8
0
LINE
8
Undeflected
10
1291.7
20
-2.1796
11
1291.7
21
-2.32577
62
9
0
LINE
8
Undeflected
10
1291.7
20
-2.32577
11
1291.7
21
-2.67922
62
10
0
LINE
8
Undeflected
10
1291.7
20
-2.18064
11
1291.7
21
-2.1796
62
1
0
LINE
8
Undeflected
10
1291.68
20
-2.27076
11
1291.7
21
-2.19412
62
2
0
LINE
8
Undeflected
10
1291.68
20
-2.26976
11
1291.7
21
-2.19312
62
3
0
LINE
8
Undeflected
10
1291.7
20
-1
11
1291.68
21
-0.998927
62
4
0
LINE
8
Undeflected
10
1281.74
20
-1
11
1281.54
21
-1
62
5
0
LINE
8
Undeflected
10
1281.53
20
-2.91981
11
1281.6
21
-2.92095
62
6
0
LINE
8
Undeflected
10
1281.6
20
-2.92095
11
1281.6
21
-4.07905
62
7
0
LINE
8
Undeflected
10
1281.6
20
-4.07905
11
1281.53
21
-4.08019
62
8
0
LINE
8
Undeflected
10
1281.54
20
-6
11
1281.74
21
-6
62
9
0
LINE
8
Undeflected
10
1291.19
20
-0.0467917
11
1291.19
21
-0.000962294
62
10
0
LINE
8
Undeflected
10
1290.06
20
-0.0467911
11
1290.06
21
-0.000962211
62
1
0
LINE
8
Undeflected
10
1291.19
20
-0.0467917
11
1290.06
21
-0.0467911
62
2
0
LINE
8
Undeflected
10
1291.19
20
-0.0467928
11
1291.44
21
-0.18315
62
3
0
LINE
8
Undeflected
10
1291.44
20
-0.18315
11
1291.48
21
-0.281442
62
4
0
LINE
8
Undeflected
10
1291.48
20
-0.282465
11
1289.77
21
-0.283011
62
5
0
LINE
8
Undeflected
10
1289.77
20
-0.283011
11
1289.91
21
-0.0919983
62
6
0
LINE
8
Undeflected
10
1289.91
20
-0.0919983
11
1290.06
21
-0.0467911
62
7
0
LINE
8
Undeflected
10
1291.52
20
-0.295088
11
1291.49
21
-0.282464
62
8
0
LINE
8
Undeflected
10
1291.69
20
-0.430986
11
1291.56
21
-0.304087
62
9
0
LINE
8
Undeflected
10
1291.64
20
-0.285751
11
1291.5
21
-0.105765
62
10
0
LINE
8
Undeflected
10
1291.19
20
-3.95834e-06
11
1291.36
21
-0.0285689
62
1
0
LINE
8
Undeflected
10
1289.77
20
-0.43147
11
1289.77
21
-0.289079
62
2
0
LINE
8
Undeflected
10
1291.49
20
-0.43147
11
1289.77
21
-0.43147
62
3
0
LINE
8
Undeflected
10
1291.49
20
-0.281443
11
1291.49
21
-0.419961
62
4
0
LINE
8
Undeflected
10
1282.86
20
-0.551952
11
1282.86
21
-0.477145
62
5
0
LINE
8
Undeflected
10
1282.86
20
-0.477145
11
1282.9
21
-0.374792
62
6
0
LINE
8
Undeflected
10
1282.9
20
-0.374792
11
1282.95
21
-0.295392
62
7
0
LINE
8
Undeflected
10
1283.54
20
0.3
11
1283.24
21
0.543198
62
8
0
LINE
8
Undeflected
10
1283.24
20
0.543198
11
1282.99
21
0.844474
62
9
0
LINE
8
Undeflected
10
1282.99
20
0.844474
11
1282.8
21
1.19182
62
10
0
LINE
8
Undeflected
10
1282.8
20
1.19182
11
1282.68
21
1.57138
62
1
0
LINE
8
Undeflected
10
1283.73
20
1.59259
11
1283.34
21
1.59259
62
2
0
LINE
8
Undeflected
10
1283.34
20
1.59259
11
1282.71
21
1.59259
62
3
0
LINE
8
Undeflected
10
1283.73
20
1.59259
11
1283.9
21
1.04541
62
4
0
LINE
8
Undeflected
10
1283.9
20
1.04541
11
1284.03
21
0.816159
62
5
0
LINE
8
Undeflected
10
1284.03
20
0.816159
11
1284.17
21
0.616036
62
6
0
LINE
8
Undeflected
10
1284.17
20
0.616036
11
1284.33
21
0.443037
62
7
0
LINE
8
Undeflected
10
1282.35
20
-1.76714e-07
11
1282.34
21
4.55851e-08
62
8
0
LINE
8
Undeflected
10
1282.32
20
0
11
1282.3
21
3.69559e-06
62
9
0
LINE
8
Undeflected
10
1282.23
20
1.03862
11
1282.24
21
0.695788
62
10
0
LINE
8
Undeflected
10
1282.24
20
0.695788
11
1282.25
21
0.400823
62
1
0
LINE
8
Undeflected
10
1282.25
20
0.400823
11
1282.27
21
0.178217
62
2
0
LINE
8
Undeflected
10
1282.27
20
0.178217
11
1282.28
21
0.0435127
62
3
0
LINE
8
Undeflected
10
1282.28
20
0.0435127
11
1282.3
21
3.78078e-06
62
4
0
LINE
8
Undeflected
10
1282.68
20
1.5926
11
1282.6
21
1.33346
62
5
0
LINE
8
Undeflected
10
1282.6
20
1.33346
11
1282.47
21
1.14515
62
6
0
LINE
8
Undeflected
10
1282.47
20
1.14515
11
1282.29
21
1.04794
62
7
0
LINE
8
Undeflected
10
1283.49
20
0.3
11
1283.28
21
0.354665
62
8
0
LINE
8
Undeflected
10
1283.28
20
0.354665
11
1282.95
21
0.34726
62
9
0
LINE
8
Undeflected
10
1282.95
20
0.34726
11
1282.68
21
0.254297
62
10
0
LINE
8
Undeflected
10
1282.68
20
0.254297
11
1282.49
21
0.137722
62
1
0
LINE
8
Undeflected
10
1282.49
20
0.137722
11
1282.37
21
0.0301369
62
2
0
LINE
8
Undeflected
10
1282.36
20
0.011302
11
1282.35
21
-1.76714e-07
62
3
0
LINE
8
Undeflected
10
1282.34
20
-2.62749e-07
11
1282.35
21
-3.52513e-07
62
4
0
LINE
8
Undeflected
10
1280.5
20
3.98094e-06
11
1282.3
21
3.78078e-06
62
5
0
LINE
8
Undeflected
10
1282.35
20
-1.76714e-07
11
1282.34
21
5.68323e-13
62
6
0
LINE
8
Undeflected
10
1281.41
20
0
11
1282.34
21
0
62
7
0
LINE
8
Undeflected
10
1281.41
20
0
11
1280.5
21
3.98094e-06
62
8
0
LINE
8
Undeflected
10
1282.34
20
-0.0467911
11
1281.41
21
-0.0467911
62
9
0
LINE
8
Undeflected
10
1282.34
20
0
11
1282.34
21
-0.0349329
62
10
0
LINE
8
Undeflected
10
1281.41
20
-0.0467911
11
1281.41
21
-0.000962211
62
1
0
LINE
8
Undeflected
10
1281.69
20
-0.281751
11
1281.41
21
-0.0467911
62
2
0
LINE
8
Undeflected
10
1282.34
20
-0.0467911
11
1282.6
21
-0.207072
62
3
0
LINE
8
Undeflected
10
1282.6
20
-0.207072
11
1282.62
21
-0.281751
62
4
0
LINE
8
Undeflected
10
1282.62
20
-0.281751
11
1281.69
21
-0.281751
62
5
0
LINE
8
Undeflected
10
1280.4
20
-0.19651
11
1281.27
21
-0.196654
62
6
0
LINE
8
Undeflected
10
1281.34
20
-0.0265181
11
1281.27
21
-0.19001
62
7
0
LINE
8
Undeflected
10
1281.41
20
0
11
1281.34
21
-0.0244835
62
8
0
LINE
8
Undeflected
10
1280.4
20
-0.0579701
11
1280.49
21
-0.000657127
62
9
0
LINE
8
Undeflected
10
1280.4
20
-0.19651
11
1280.4
21
-0.0579701
62
10
0
LINE
8
Undeflected
10
1280.5
20
3.98094e-06
11
1280.41
21
0.00181581
62
1
0
LINE
8
Undeflected
10
1280.4
20
0.00224092
11
1280.4
21
0.0636892
62
2
0
LINE
8
Undeflected
10
1280.4
20
0.0636892
11
1280.4
21
0.206503
62
3
0
LINE
8
Undeflected
10
1280.4
20
0.206503
11
1280.4
21
0.424251
62
4
0
LINE
8
Undeflected
10
1280.4
20
0.424251
11
1280.4
21
0.707443
62
5
0
LINE
8
Undeflected
10
1280.4
20
0.707443
11
1280.4
21
0.869893
62
6
0
LINE
8
Undeflected
10
1282.23
20
1.03862
11
1280.4
21
1.04396
62
7
0
LINE
8
Undeflected
10
1282.23
20
1.03862
11
1282.23
21
1.84186
62
8
0
LINE
8
Undeflected
10
1282.23
20
1.84186
11
1282.23
21
2.59172
62
9
0
LINE
8
Undeflected
10
1282.23
20
2.59172
11
1282.23
21
3.28072
62
10
0
LINE
8
Undeflected
10
1282.23
20
3.28072
11
1282.23
21
3.90197
62
1
0
LINE
8
Undeflected
10
1282.23
20
3.90197
11
1282.23
21
4.44926
62
2
0
LINE
8
Undeflected
10
1282.23
20
4.44926
11
1282.23
21
4.91712
62
3
0
LINE
8
Undeflected
10
1282.23
20
4.91712
11
1282.23
21
5.30089
62
4
0
LINE
8
Undeflected
10
1282.23
20
5.30089
11
1282.23
21
5.59671
62
5
0
LINE
8
Undeflected
10
1282.23
20
5.59671
11
1282.23
21
5.80165
62
6
0
LINE
8
Undeflected
10
1282.23
20
5.80165
11
1282.23
21
5.91365
62
7
0
LINE
8
Undeflected
10
1280.4
20
1.04396
11
1280.4
21
1.85415
62
8
0
LINE
8
Undeflected
10
1280.4
20
1.85415
11
1280.4
21
2.61084
62
9
0
LINE
8
Undeflected
10
1280.4
20
2.61084
11
1280.4
21
3.30648
62
10
0
LINE
8
Undeflected
10
1280.4
20
3.30648
11
1280.4
21
3.93411
62
1
0
LINE
8
Undeflected
10
1280.4
20
3.93411
11
1280.4
21
4.48745
62
2
0
LINE
8
Undeflected
10
1280.4
20
4.48745
11
1280.4
21
4.961
62
3
0
LINE
8
Undeflected
10
1280.4
20
4.961
11
1280.4
21
5.35
62
4
0
LINE
8
Undeflected
10
1280.4
20
5.35
11
1280.4
21
5.65057
62
5
0
LINE
8
Undeflected
10
1280.4
20
5.65057
11
1280.4
21
5.85972
62
6
0
LINE
8
Undeflected
10
1280.4
20
5.85972
11
1280.4
21
5.97534
62
7
0
LINE
8
Undeflected
10
1282.23
20
5.93611
11
1280.4
21
6
62
8
0
LINE
8
Undeflected
10
1282.27
20
0.131047
11
1282.26
21
0.220614
62
9
0
LINE
8
Undeflected
10
1284.51
20
0.3
11
1284.2
21
0.587299
62
10
0
LINE
8
Undeflected
10
1284.2
20
0.587299
11
1283.96
21
0.940935
62
1
0
LINE
8
Undeflected
10
1283.96
20
0.940935
11
1283.78
21
1.39259
62
2
0
LINE
8
Undeflected
10
1289.7
20
-0.5689
11
1289.78
21
-0.434495
62
3
0
LINE
8
Undeflected
10
1283.73
20
1.59259
11
1283.73
21
1.58623
62
4
0
LINE
8
Undeflected
10
1283.73
20
1.58348
11
1283.73
21
1.57603
62
5
0
LINE
8
Undeflected
10
1284.51
20
0.3
11
1284.2
21
0.587299
62
6
0
LINE
8
Undeflected
10
1284.2
20
0.587299
11
1283.96
21
0.940935
62
7
0
LINE
8
Undeflected
10
1283.96
20
0.940935
11
1283.78
21
1.39259
62
8
0
LINE
8
Undeflected
10
1283.07
20
4.33711
11
1282.96
21
4.71028
62
9
0
LINE
8
Undeflected
10
1282.68
20
5.60571
11
1282.67
21
5.63346
62
10
0
LINE
8
Undeflected
10
1282.67
20
5.63727
11
1282.66
21
5.65731
62
1
0
LINE
8
Undeflected
10
1282.66
20
5.65722
11
1282.67
21
5.63803
62
2
0
LINE
8
Undeflected
10
1282.67
20
5.63724
11
1282.68
21
5.61414
62
3
0
LINE
8
Undeflected
10
1283.73
20
1.59259
11
1283.58
21
2.35224
62
4
0
LINE
8
Undeflected
10
1283.58
20
2.35224
11
1283.43
21
3.01054
62
5
0
LINE
8
Undeflected
10
1283.43
20
3.01054
11
1283.28
21
3.57925
62
6
0
LINE
8
Undeflected
10
1283.28
20
3.57925
11
1283.15
21
4.06888
62
7
0
LINE
8
Undeflected
10
1283.15
20
4.06888
11
1283.03
21
4.48569
62
8
0
LINE
8
Undeflected
10
1283.03
20
4.48569
11
1282.93
21
4.83305
62
9
0
LINE
8
Undeflected
10
1282.93
20
4.83305
11
1282.84
21
5.11478
62
10
0
LINE
8
Undeflected
10
1282.84
20
5.11478
11
1282.77
21
5.33424
62
1
0
LINE
8
Undeflected
10
1282.77
20
5.33424
11
1282.68
21
5.6057
62
2
0
LINE
8
Undeflected
10
1283.73
20
1.5835
11
1283.61
21
2.20078
62
3
0
LINE
8
Undeflected
10
1283.61
20
2.20078
11
1283.48
21
2.8082
62
4
0
LINE
8
Undeflected
10
1283.48
20
2.8082
11
1283.33
21
3.40278
62
5
0
LINE
8
Undeflected
10
1283.33
20
3.40278
11
1283.18
21
3.97824
62
6
0
LINE
8
Undeflected
10
1283.18
20
3.97824
11
1283.02
21
4.525
62
7
0
LINE
8
Undeflected
10
1283.02
20
4.525
11
1282.93
21
4.81311
62
8
0
LINE
8
Undeflected
10
1282.93
20
4.81311
11
1282.85
21
5.08044
62
9
0
LINE
8
Undeflected
10
1282.85
20
5.08044
11
1282.77
21
5.31831
62
10
0
LINE
8
Undeflected
10
1282.77
20
5.31831
11
1282.71
21
5.51105
62
1
0
LINE
8
Undeflected
10
1282.67
20
5.63723
11
1282.73
21
5.44008
62
2
0
LINE
8
Undeflected
10
1282.73
20
5.44008
11
1282.83
21
5.14538
62
3
0
LINE
8
Undeflected
10
1282.83
20
5.14538
11
1282.93
21
4.82607
62
4
0
LINE
8
Undeflected
10
1282.93
20
4.82607
11
1283.05
21
4.43185
62
5
0
LINE
8
Undeflected
10
1283.05
20
4.43185
11
1283.3
21
3.52931
62
6
0
LINE
8
Undeflected
10
1283.3
20
3.52931
11
1283.53
21
2.57159
62
7
0
LINE
8
Undeflected
10
1283.53
20
2.57159
11
1283.73
21
1.5835
62
8
0
LINE
8
Undeflected
10
1282.68
20
5.6057
11
1282.68
21
5.51144
62
9
0
LINE
8
Undeflected
10
1282.68
20
5.51144
11
1282.68
21
5.32714
62
10
0
LINE
8
Undeflected
10
1282.68
20
5.32714
11
1282.68
21
5.05464
62
1
0
LINE
8
Undeflected
10
1282.68
20
5.05464
11
1282.68
21
4.69667
62
2
0
LINE
8
Undeflected
10
1282.68
20
4.69667
11
1282.68
21
4.2568
62
3
0
LINE
8
Undeflected
10
1282.68
20
4.2568
11
1282.68
21
3.73943
62
4
0
LINE
8
Undeflected
10
1282.68
20
3.73943
11
1282.68
21
3.14972
62
5
0
LINE
8
Undeflected
10
1282.68
20
3.14972
11
1282.68
21
2.49357
62
6
0
LINE
8
Undeflected
10
1282.68
20
2.49357
11
1282.68
21
1.77753
62
7
0
LINE
8
Undeflected
10
1282.66
20
5.65731
11
1282.44
21
5.88305
62
8
0
LINE
8
Undeflected
10
1282.44
20
5.88305
11
1282.23
21
5.93611
62
9
0
LINE
8
Undeflected
10
1282.79
20
-0.567696
11
1282.78
21
-0.225621
62
10
0
LINE
8
Undeflected
10
1282.86
20
-0.477145
11
1282.71
21
-0.132903
62
1
0
LINE
8
Undeflected
10
1282.71
20
-0.132903
11
1282.36
21
0.011302
62
2
0
LINE
8
Undeflected
10
1281.69
20
-0.431469
11
1281.69
21
-0.289079
62
3
0
LINE
8
Undeflected
10
1282.62
20
-0.431469
11
1281.69
21
-0.431469
62
4
0
LINE
8
Undeflected
10
1282.62
20
-0.281751
11
1282.62
21
-0.42044
62
5
0
LINE
8
Undeflected
10
1281.54
20
-0.982516
11
1281.74
21
-0.982516
62
6
0
LINE
8
Undeflected
10
1291.21
20
-0.5689
11
1291.21
21
-0.434489
62
7
0
LINE
8
Undeflected
10
1282.46
20
0
11
1282.34
21
0
62
8
0
LINE
8
Undeflected
10
1291.69
20
-6.56911
11
1291.51
21
-6.56882
62
9
0
LINE
8
Undeflected
10
1291.69
20
-6.5667
11
1291.69
21
-6.50873
62
10
0
LINE
8
Undeflected
10
1291.7
20
-6
11
1291.69
21
-6.50873
62
1
0
LINE
8
Undeflected
10
1291.49
20
-6.56853
11
1291.49
21
-6.427
62
2
0
LINE
8
Undeflected
10
1291.19
20
-7
11
1291.34
21
-6.97767
62
3
0
LINE
8
Undeflected
10
1291.54
20
-6.85358
11
1291.69
21
-6.54268
62
4
0
LINE
8
Undeflected
10
1291.19
20
-7
11
1291.33
21
-6.9805
62
5
0
LINE
8
Undeflected
10
1291.36
20
-6.96969
11
1291.59
21
-6.80735
62
6
0
LINE
8
Undeflected
10
1291.63
20
-6.74831
11
1291.68
21
-6.60664
62
7
0
LINE
8
Undeflected
10
1291.19
20
-7
11
1290.06
21
-7
62
8
0
LINE
8
Undeflected
10
1290.06
20
-7
11
1290.04
21
-7
62
9
0
LINE
8
Undeflected
10
1289.23
20
-7
11
1289.56
21
-7
62
10
0
LINE
8
Undeflected
10
1289.56
20
-7
11
1289.81
21
-7
62
1
0
LINE
8
Undeflected
10
1289.81
20
-7
11
1289.98
21
-7
62
2
0
LINE
8
Undeflected
10
1289.98
20
-7
11
1290.04
21
-7
62
3
0
LINE
8
Undeflected
10
1289.23
20
-7
11
1289.53
21
-7
62
4
0
LINE
8
Undeflected
10
1289.53
20
-7
11
1289.8
21
-7
62
5
0
LINE
8
Undeflected
10
1289.8
20
-7
11
1290.04
21
-7
62
6
0
LINE
8
Undeflected
10
1290.04
20
-7
11
1290.23
21
-7
62
7
0
LINE
8
Undeflected
10
1290.23
20
-7
11
1290.39
21
-7
62
8
0
LINE
8
Undeflected
10
1290.39
20
-7
11
1290.51
21
-7
62
9
0
LINE
8
Undeflected
10
1290.51
20
-7
11
1290.58
21
-7
62
10
0
LINE
8
Undeflected
10
1290.58
20
-7
11
1290.6
21
-7
62
1
0
LINE
8
Undeflected
10
1290.6
20
-7
11
1290.58
21
-7
62
2
0
LINE
8
Undeflected
10
1290.58
20
-7
11
1290.52
21
-7
62
3
0
LINE
8
Undeflected
10
1290.52
20
-7
11
1290.41
21
-7
62
4
0
LINE
8
Undeflected
10
1290.41
20
-7
11
1290.26
21
-7
62
5
0
LINE
8
Undeflected
10
1290.26
20
-7
11
1290.07
21
-7
62
6
0
LINE
8
Undeflected
10
1290.07
20
-7
11
1289.84
21
-7
62
7
0
LINE
8
Undeflected
10
1289.84
20
-7
11
1289.57
21
-7
62
8
0
LINE
8
Undeflected
10
1289.57
20
-7
11
1289.27
21
-7
62
9
0
LINE
8
Undeflected
10
1281.53
20
-7
11
1282.3
21
-7
62
10
0
LINE
8
Undeflected
10
1281.74
20
-6.01745
11
1281.54
21
-6.01745
62
1
0
LINE
8
Undeflected
10
1291.21
20
-6.71646
11
1291.21
21
-6.46892
62
2
0
LINE
8
Undeflected
10
1291.19
20
-7
11
1291.19
21
-6.96507
62
3
0
LINE
8
Undeflected
10
1291.48
20
-6.71649
11
1291.69
21
-6.5667
62
4
0
LINE
8
Undeflected
10
1291.48
20
-6.71649
11
1291.33
21
-6.92163
62
5
0
LINE
8
Undeflected
10
1291.33
20
-6.92163
11
1291.19
21
-6.95321
62
6
0
LINE
8
Undeflected
10
1291.36
20
-6.96969
11
1291.6
21
-6.79027
62
7
0
LINE
8
Undeflected
10
1291.6
20
-6.79027
11
1291.63
21
-6.74832
62
8
0
LINE
8
Undeflected
10
1289.77
20
-6.71633
11
1289.91
21
-6.90864
62
9
0
LINE
8
Undeflected
10
1289.91
20
-6.90864
11
1290.06
21
-6.95321
62
10
0
LINE
8
Undeflected
10
1290.06
20
-6.95321
11
1291.19
21
-6.95321
62
1
0
LINE
8
Undeflected
10
1289.77
20
-6.71633
11
1291.48
21
-6.71649
62
2
0
LINE
8
Undeflected
10
1291.65
20
-6.23442
11
1291.49
21
-6.38135
62
3
0
LINE
8
Undeflected
10
1291.45
20
-6.38431
11
1291.45
21
-6.43014
62
4
0
LINE
8
Undeflected
10
1291.45
20
-6.4311
11
1291.45
21
-6.39617
62
5
0
LINE
8
Undeflected
10
1291.45
20
-6.4311
11
1291.65
21
-6.24525
62
6
0
LINE
8
Undeflected
10
1291.45
20
-6.38431
11
1289.64
21
-6.38431
62
7
0
LINE
8
Undeflected
10
1289.64
20
-6.38431
11
1289.64
21
-6.43014
62
8
0
LINE
8
Undeflected
10
1289.64
20
-6.4311
11
1289.64
21
-6.39617
62
9
0
LINE
8
Undeflected
10
1291.45
20
-6.4311
11
1289.64
21
-6.4311
62
10
0
LINE
8
Undeflected
10
1291.69
20
-4.30349
11
1291.5
21
-4.49972
62
1
0
LINE
8
Undeflected
10
1291.68
20
-4.69651
11
1291.68
21
-4.37819
62
2
0
LINE
8
Undeflected
10
1291.68
20
-4.37819
11
1291.69
21
-4.30349
62
3
0
LINE
8
Undeflected
10
1291.68
20
-4.69641
11
1291.68
21
-4.63049
62
4
0
LINE
8
Undeflected
10
1291.68
20
-4.3986
11
1291.69
21
-4.30409
62
5
0
LINE
8
Undeflected
10
1291.7
20
-3.7333
11
1291.7
21
-3.52525
62
6
0
LINE
8
Undeflected
10
1291.65
20
-6.23433
11
1291.7
21
-3.7333
62
7
0
LINE
8
Undeflected
10
1291.7
20
-3.3284
11
1291.69
21
-2.69651
62
8
0
LINE
8
Undeflected
10
1291.7
20
-3.5
11
1291.7
21
-3.28374
62
9
0
LINE
8
Undeflected
10
1291.7
20
-3.2667
11
1291.65
21
-0.76541
62
10
0
LINE
8
Undeflected
10
1291.69
20
-2.69651
11
1291.68
21
-2.53478
62
1
0
LINE
8
Undeflected
10
1291.68
20
-2.53478
11
1291.68
21
-2.36657
62
2
0
LINE
8
Undeflected
10
1291.7
20
-3.5
11
1291.5
21
-3.5
62
3
0
LINE
8
Undeflected
10
1291.7
20
-3.2667
11
1291.51
21
-3.11715
62
4
0
LINE
8
Undeflected
10
1291.5
20
-3.11698
11
1291.5
21
-3.41317
62
5
0
LINE
8
Undeflected
10
1291.5
20
-3.41317
11
1291.5
21
-3.5
62
6
0
LINE
8
Undeflected
10
1291.7
20
-3.5
11
1291.7
21
-3.2667
62
7
0
LINE
8
Undeflected
10
1281.9
20
-3.88302
11
1281.9
21
-3.58683
62
8
0
LINE
8
Undeflected
10
1281.9
20
-3.58683
11
1281.9
21
-3.5
62
9
0
LINE
8
Undeflected
10
1281.9
20
-3.88302
11
1291.5
21
-3.88302
62
10
0
LINE
8
Undeflected
10
1291.5
20
-3.5
11
1291.5
21
-3.8214
62
1
0
LINE
8
Undeflected
10
1291.5
20
-3.8214
11
1291.5
21
-3.88302
62
2
0
LINE
8
Undeflected
10
1281.9
20
-3.11698
11
1291.5
21
-3.11698
62
3
0
LINE
8
Undeflected
10
1281.9
20
-3.11698
11
1281.9
21
-3.41318
62
4
0
LINE
8
Undeflected
10
1281.9
20
-3.41318
11
1281.9
21
-3.5
62
5
0
LINE
8
Undeflected
10
1281.7
20
-3.5
11
1281.87
21
-3.5
62
6
0
LINE
8
Undeflected
10
1281.9
20
-3.11698
11
1281.7
21
-3.25791
62
7
0
LINE
8
Undeflected
10
1281.7
20
-3.2667
11
1281.7
21
-3.47475
62
8
0
LINE
8
Undeflected
10
1281.75
20
-0.765974
11
1281.7
21
-3.26612
62
9
0
LINE
8
Undeflected
10
1281.7
20
-3.5
11
1281.7
21
-3.5
62
10
0
LINE
8
Undeflected
10
1281.7
20
-3.5
11
1281.7
21
-3.30646
62
1
0
LINE
8
Undeflected
10
1281.7
20
-3.26612
11
1281.71
21
-2.94611
62
2
0
LINE
8
Undeflected
10
1281.71
20
-2.94611
11
1281.71
21
-2.88042
62
3
0
LINE
8
Undeflected
10
1281.71
20
-2.85622
11
1281.71
21
-2.83591
62
4
0
LINE
8
Undeflected
10
1281.71
20
-2.83591
11
1281.71
21
-2.83591
62
5
0
LINE
8
Undeflected
10
1281.71
20
-2.8359
11
1281.71
21
-2.8168
62
6
0
LINE
8
Undeflected
10
1281.71
20
-2.80748
11
1281.71
21
-2.65982
62
7
0
LINE
8
Undeflected
10
1281.72
20
-2.46341
11
1281.72
21
-2.10705
62
8
0
LINE
8
Undeflected
10
1281.72
20
-2.10705
11
1281.73
21
-1.86937
62
9
0
LINE
8
Undeflected
10
1281.73
20
-1.86937
11
1281.73
21
-1.83128
62
10
0
LINE
8
Undeflected
10
1281.72
20
-2.46341
11
1281.72
21
-2.10698
62
1
0
LINE
8
Undeflected
10
1281.72
20
-2.10698
11
1281.73
21
-1.86937
62
2
0
LINE
8
Undeflected
10
1281.73
20
-5.13062
11
1281.75
21
-6.23459
62
3
0
LINE
8
Undeflected
10
1281.72
20
-4.39486
11
1281.71
21
-4.34288
62
4
0
LINE
8
Undeflected
10
1281.71
20
-4.27183
11
1281.71
21
-4.204
62
5
0
LINE
8
Undeflected
10
1281.71
20
-4.16409
11
1281.71
21
-4.16409
62
6
0
LINE
8
Undeflected
10
1281.71
20
-4.16409
11
1281.71
21
-4.14378
62
7
0
LINE
8
Undeflected
10
1281.71
20
-4.14378
11
1281.71
21
-3.82062
62
8
0
LINE
8
Undeflected
10
1281.71
20
-3.82062
11
1281.7
21
-3.5
62
9
0
LINE
8
Undeflected
10
1281.7
20
-3.5
11
1281.7
21
-3.64425
62
10
0
LINE
8
Undeflected
10
1281.7
20
-3.65947
11
1281.7
21
-3.72824
62
1
0
LINE
8
Undeflected
10
1281.7
20
-3.7333
11
1281.75
21
-6.23459
62
2
0
LINE
8
Undeflected
10
1281.75
20
-6.23459
11
1281.94
21
-6.38414
62
3
0
LINE
8
Undeflected
10
1281.95
20
-6.38431
11
1281.95
21
-6.43014
62
4
0
LINE
8
Undeflected
10
1281.95
20
-6.4311
11
1281.95
21
-6.39617
62
5
0
LINE
8
Undeflected
10
1281.75
20
-6.23459
11
1281.94
21
-6.43082
62
6
0
LINE
8
Undeflected
10
1282.76
20
-6.38431
11
1282.76
21
-6.43014
62
7
0
LINE
8
Undeflected
10
1282.76
20
-6.4311
11
1282.76
21
-6.39617
62
8
0
LINE
8
Undeflected
10
1281.95
20
-6.38431
11
1282.76
21
-6.38431
62
9
0
LINE
8
Undeflected
10
1282.76
20
-6.4311
11
1281.95
21
-6.4311
62
10
0
LINE
8
Undeflected
10
1283.17
20
-6.71505
11
1283.07
21
-6.50039
62
1
0
LINE
8
Undeflected
10
1283.07
20
-6.50039
11
1282.76
21
-6.38431
62
2
0
LINE
8
Undeflected
10
1283.18
20
-7.25321
11
1283.17
21
-6.71505
62
3
0
LINE
8
Undeflected
10
1283.18
20
-7.25321
11
1289.22
21
-7.25321
62
4
0
LINE
8
Undeflected
10
1289.23
20
-6.71505
11
1289.22
21
-7.25321
62
5
0
LINE
8
Undeflected
10
1289.64
20
-6.38431
11
1289.33
21
-6.50011
62
6
0
LINE
8
Undeflected
10
1289.33
20
-6.50011
11
1289.23
21
-6.71505
62
7
0
LINE
8
Undeflected
10
1291.5
20
-3.88302
11
1291.45
21
-6.38431
62
8
0
LINE
8
Undeflected
10
1281.95
20
-6.38431
11
1281.9
21
-3.88302
62
9
0
LINE
8
Undeflected
10
1284.52
20
-7.23341
11
1284.22
21
-7.11644
62
10
0
LINE
8
Undeflected
10
1284.22
20
-7.11644
11
1284.13
21
-6.89777
62
1
0
LINE
8
Undeflected
10
1284.52
20
-7.23341
11
1287.88
21
-7.23341
62
2
0
LINE
8
Undeflected
10
1287.88
20
-7.23341
11
1288.19
21
-7.10668
62
3
0
LINE
8
Undeflected
10
1288.19
20
-7.10668
11
1288.27
21
-6.89777
62
4
0
LINE
8
Undeflected
10
1288.25
20
-5.55727
11
1288.27
21
-6.89777
62
5
0
LINE
8
Undeflected
10
1288.25
20
-5.55727
11
1288.15
21
-5.34261
62
6
0
LINE
8
Undeflected
10
1288.15
20
-5.34261
11
1287.84
21
-5.22653
62
7
0
LINE
8
Undeflected
10
1287.84
20
-5.22653
11
1284.56
21
-5.22653
62
8
0
LINE
8
Undeflected
10
1284.56
20
-5.22653
11
1284.25
21
-5.34233
62
9
0
LINE
8
Undeflected
10
1284.25
20
-5.34233
11
1284.15
21
-5.55727
62
10
0
LINE
8
Undeflected
10
1284.13
20
-6.89777
11
1284.15
21
-5.55727
62
1
0
LINE
8
Undeflected
10
1281.7
20
-3.7333
11
1281.89
21
-3.88285
62
2
0
LINE
8
Undeflected
10
1281.7
20
-3.7333
11
1281.7
21
-3.65947
62
3
0
LINE
8
Undeflected
10
1291.5
20
-3.88302
11
1291.7
21
-3.7426
62
4
0
LINE
8
Undeflected
10
1289.22
20
-7.25321
11
1289.22
21
-7.29904
62
5
0
LINE
8
Undeflected
10
1283.18
20
-7.3
11
1283.18
21
-7.26507
62
6
0
LINE
8
Undeflected
10
1289.22
20
-7.3
11
1283.18
21
-7.3
62
7
0
LINE
8
Undeflected
10
1291.69
20
-2.69651
11
1291.69
21
-2.69369
62
8
0
LINE
8
Undeflected
10
1291.65
20
-0.76541
11
1291.46
21
-0.615861
62
9
0
LINE
8
Undeflected
10
1291.45
20
-0.615691
11
1291.45
21
-0.569862
62
10
0
LINE
8
Undeflected
10
1291.45
20
-0.5689
11
1291.45
21
-0.603833
62
1
0
LINE
8
Undeflected
10
1291.65
20
-0.76541
11
1291.46
21
-0.569185
62
2
0
LINE
8
Undeflected
10
1289.64
20
-0.615691
11
1289.64
21
-0.569862
62
3
0
LINE
8
Undeflected
10
1289.64
20
-0.5689
11
1289.64
21
-0.603833
62
4
0
LINE
8
Undeflected
10
1291.45
20
-0.615691
11
1289.64
21
-0.615691
62
5
0
LINE
8
Undeflected
10
1291.45
20
-0.5689
11
1289.64
21
-0.5689
62
6
0
LINE
8
Undeflected
10
1291.45
20
-0.615691
11
1291.5
21
-3.11698
62
7
0
LINE
8
Undeflected
10
1281.9
20
-3.11698
11
1281.95
21
-0.615691
62
8
0
LINE
8
Undeflected
10
1282.76
20
-0.615691
11
1281.95
21
-0.615691
62
9
0
LINE
8
Undeflected
10
1282.76
20
-0.615691
11
1283.07
21
-0.499892
62
10
0
LINE
8
Undeflected
10
1283.07
20
-0.499892
11
1283.17
21
-0.284947
62
1
0
LINE
8
Undeflected
10
1283.17
20
-0.284947
11
1283.18
21
0.253255
62
2
0
LINE
8
Undeflected
10
1283.18
20
0.253255
11
1289.22
21
0.253302
62
3
0
LINE
8
Undeflected
10
1289.22
20
0.253302
11
1289.23
21
-0.284947
62
4
0
LINE
8
Undeflected
10
1289.23
20
-0.284947
11
1289.33
21
-0.49961
62
5
0
LINE
8
Undeflected
10
1289.33
20
-0.49961
11
1289.64
21
-0.615691
62
6
0
LINE
8
Undeflected
10
1284.52
20
0.23341
11
1284.21
21
0.106676
62
7
0
LINE
8
Undeflected
10
1284.21
20
0.106676
11
1284.13
21
-0.10223
62
8
0
LINE
8
Undeflected
10
1284.15
20
-1.44273
11
1284.13
21
-0.10223
62
9
0
LINE
8
Undeflected
10
1284.15
20
-1.44273
11
1284.25
21
-1.65739
62
10
0
LINE
8
Undeflected
10
1284.25
20
-1.65739
11
1284.56
21
-1.77347
62
1
0
LINE
8
Undeflected
10
1284.56
20
-1.77347
11
1287.84
21
-1.77347
62
2
0
LINE
8
Undeflected
10
1287.84
20
-1.77347
11
1288.15
21
-1.65767
62
3
0
LINE
8
Undeflected
10
1288.15
20
-1.65767
11
1288.25
21
-1.44273
62
4
0
LINE
8
Undeflected
10
1288.27
20
-0.10223
11
1288.25
21
-1.44273
62
5
0
LINE
8
Undeflected
10
1288.27
20
-0.10223
11
1288.18
21
0.116439
62
6
0
LINE
8
Undeflected
10
1288.18
20
0.116439
11
1287.88
21
0.23341
62
7
0
LINE
8
Undeflected
10
1287.88
20
0.23341
11
1284.52
21
0.23341
62
8
0
LINE
8
Undeflected
10
1281.95
20
-0.615691
11
1281.75
21
-0.756624
62
9
0
LINE
8
Undeflected
10
1281.75
20
-0.76541
11
1281.7
21
-3.26612
62
10
0
LINE
8
Undeflected
10
1281.95
20
-0.586905
11
1281.95
21
-0.607009
62
1
0
LINE
8
Undeflected
10
1281.95
20
-0.615691
11
1281.95
21
-0.569862
62
2
0
LINE
8
Undeflected
10
1281.95
20
-0.5689
11
1281.95
21
-0.584688
62
3
0
LINE
8
Undeflected
10
1281.95
20
-0.5689
11
1281.75
21
-0.754753
62
4
0
LINE
8
Undeflected
10
1282.76
20
-0.615691
11
1282.76
21
-0.569862
62
5
0
LINE
8
Undeflected
10
1282.76
20
-0.5689
11
1282.76
21
-0.603833
62
6
0
LINE
8
Undeflected
10
1282.76
20
-0.5689
11
1281.95
21
-0.5689
62
7
0
LINE
8
Undeflected
10
1282.94
20
-0.57944
11
1282.97
21
-0.447395
62
8
0
LINE
8
Undeflected
10
1282.97
20
-0.434663
11
1283.16
21
-0.285116
62
9
0
LINE
8
Undeflected
10
1282.76
20
-0.5689
11
1282.96
21
-0.4708
62
10
0
LINE
8
Undeflected
10
1282.96
20
-0.4708
11
1282.97
21
-0.434663
62
1
0
LINE
8
Undeflected
10
1283.18
20
0.253209
11
1282.98
21
0.112275
62
2
0
LINE
8
Undeflected
10
1282.97
20
-0.434665
11
1282.98
21
0.10349
62
3
0
LINE
8
Undeflected
10
1283.18
20
0.3
11
1283.18
21
0.265067
62
4
0
LINE
8
Undeflected
10
1289.22
20
0.3
11
1289.22
21
0.265067
62
5
0
LINE
8
Undeflected
10
1283.18
20
0.3
11
1289.22
21
0.3
62
6
0
LINE
8
Undeflected
10
1282.98
20
0.10349
11
1283.17
21
0.299716
62
7
0
LINE
8
Undeflected
10
1282.98
20
0.10349
11
1283.17
21
0.299716
62
8
0
LINE
8
Undeflected
10
1289.22
20
0.227774
11
1289.22
21
0.276556
62
9
0
LINE
8
Undeflected
10
1284.15
20
0.00523546
11
1284.52
21
0.00523546
62
10
0
LINE
8
Undeflected
10
1287.88
20
0.00523546
11
1288.25
21
0.00523546
62
1
0
LINE
8
Undeflected
10
1289.22
20
0.3
11
1289.42
21
0.114147
62
2
0
LINE
8
Undeflected
10
1289.42
20
0.10349
11
1289.22
21
0.3
62
3
0
LINE
8
Undeflected
10
1282.98
20
-7.10349
11
1282.97
21
-6.56533
62
4
0
LINE
8
Undeflected
10
1283.18
20
-7.25321
11
1282.98
21
-7.11228
62
5
0
LINE
8
Undeflected
10
1283.17
20
-6.71505
11
1282.97
21
-6.57412
62
6
0
LINE
8
Undeflected
10
1282.97
20
-6.56533
11
1282.95
21
-6.43262
62
7
0
LINE
8
Undeflected
10
1282.97
20
-6.56534
11
1282.89
21
-6.4635
62
8
0
LINE
8
Undeflected
10
1282.89
20
-6.4635
11
1282.76
21
-6.4311
62
9
0
LINE
8
Undeflected
10
1283.18
20
-7.3
11
1282.98
21
-7.11415
62
10
0
LINE
8
Undeflected
10
1282.98
20
-7.10349
11
1283.17
21
-7.29972
62
1
0
LINE
8
Undeflected
10
1283.18
20
-7.25321
11
1283.18
21
-7.27506
62
2
0
LINE
8
Undeflected
10
1284.4
20
-7.00524
11
1284.52
21
-7.00524
62
3
0
LINE
8
Undeflected
10
1287.88
20
-7.00524
11
1288.25
21
-7.00524
62
4
0
LINE
8
Undeflected
10
1289.22
20
-7.29988
11
1289.22
21
-7.23891
62
5
0
LINE
8
Undeflected
10
1289.54
20
-6.50873
11
1289.67
21
-6.82873
62
6
0
LINE
8
Undeflected
10
1289.67
20
-6.82873
11
1289.97
21
-6.99413
62
7
0
LINE
8
Undeflected
10
1289.97
20
-6.99413
11
1290.02
21
-6.99929
62
8
0
LINE
8
Undeflected
10
1289.32
20
-6.50873
11
1289.47
21
-6.50873
62
9
0
LINE
8
Undeflected
10
1289.47
20
-6.50873
11
1289.54
21
-6.50873
62
10
0
LINE
8
Undeflected
10
1289.54
20
-6.39412
11
1289.54
21
-6.50873
62
1
0
LINE
8
Undeflected
10
1281.74
20
-5.75
11
1281.68
21
-5.75
62
2
0
LINE
8
Undeflected
10
1281.68
20
-5.75
11
1281.55
21
-5.74979
62
3
0
LINE
8
Undeflected
10
1281.54
20
-5.74974
11
1280.4
21
-5.74476
62
4
0
LINE
8
Undeflected
10
1280.4
20
-5.74476
11
1280.4
21
-5.73786
62
5
0
LINE
8
Undeflected
10
1280.4
20
-5.73786
11
1280.76
21
-5.73763
62
6
0
LINE
8
Undeflected
10
1280.76
20
-5.73763
11
1281.12
21
-5.73739
62
7
0
LINE
8
Undeflected
10
1281.12
20
-5.73739
11
1281.49
21
-5.73716
62
8
0
LINE
8
Undeflected
10
1281.49
20
-5.73716
11
1281.61
21
-5.73708
62
9
0
LINE
8
Undeflected
10
1281.61
20
-5.73708
11
1281.63
21
-5.73707
62
10
0
LINE
8
Undeflected
10
1281.63
20
-5.73707
11
1281.65
21
-5.73705
62
1
0
LINE
8
Undeflected
10
1281.65
20
-5.73705
11
1281.74
21
-5.737
62
2
0
LINE
8
Undeflected
10
1281.54
20
-5.74974
11
1281.54
21
-6
62
3
0
LINE
8
Undeflected
10
1280.4
20
-6
11
1281.54
21
-6
62
4
0
LINE
8
Undeflected
10
1280.4
20
-6
11
1280.4
21
-5.74476
62
5
0
LINE
8
Undeflected
10
1281.27
20
-6.80364
11
1280.4
21
-6.80349
62
6
0
LINE
8
Undeflected
10
1280.4
20
-6.80349
11
1280.4
21
-6
62
7
0
LINE
8
Undeflected
10
1281.54
20
-6
11
1281.55
21
-6.56853
62
8
0
LINE
8
Undeflected
10
1281.55
20
-6.56853
11
1281.27
21
-6.80364
62
9
0
LINE
8
Undeflected
10
1280.5
20
-7
11
1280.41
21
-6.95297
62
10
0
LINE
8
Undeflected
10
1280.5
20
-7
11
1281.41
21
-7
62
1
0
LINE
8
Undeflected
10
1281.27
20
-6.80364
11
1281.41
21
-6.99972
62
2
0
LINE
8
Undeflected
10
1280.4
20
-6.94203
11
1280.4
21
-6.80349
62
3
0
LINE
8
Undeflected
10
1282.79
20
-6.4323
11
1282.78
21
-6.66804
62
4
0
LINE
8
Undeflected
10
1284.51
20
-7.3
11
1284.17
21
-7.62183
62
5
0
LINE
8
Undeflected
10
1284.17
20
-7.62183
11
1284.02
21
-7.82283
62
6
0
LINE
8
Undeflected
10
1284.02
20
-7.82283
11
1283.9
21
-8.05301
62
7
0
LINE
8
Undeflected
10
1283.9
20
-8.05301
11
1283.8
21
-8.31358
62
8
0
LINE
8
Undeflected
10
1282.68
20
-8.59259
11
1283.32
21
-8.59259
62
9
0
LINE
8
Undeflected
10
1283.32
20
-8.59259
11
1283.72
21
-8.59259
62
10
0
LINE
8
Undeflected
10
1283.54
20
-7.3
11
1283.24
21
-7.5432
62
1
0
LINE
8
Undeflected
10
1283.24
20
-7.5432
11
1282.99
21
-7.84447
62
2
0
LINE
8
Undeflected
10
1282.99
20
-7.84447
11
1282.8
21
-8.19182
62
3
0
LINE
8
Undeflected
10
1282.8
20
-8.19182
11
1282.68
21
-8.57138
62
4
0
LINE
8
Undeflected
10
1283.73
20
-8.59259
11
1283.73
21
-8.58575
62
5
0
LINE
8
Undeflected
10
1283.73
20
-8.58348
11
1283.73
21
-8.57564
62
6
0
LINE
8
Undeflected
10
1284.51
20
-7.3
11
1284.2
21
-7.5873
62
7
0
LINE
8
Undeflected
10
1284.2
20
-7.5873
11
1283.96
21
-7.94094
62
8
0
LINE
8
Undeflected
10
1283.96
20
-7.94094
11
1283.78
21
-8.39259
62
9
0
LINE
8
Undeflected
10
1289.7
20
-6.4311
11
1289.88
21
-6.68629
62
10
0
LINE
8
Undeflected
10
1283.73
20
-8.58348
11
1283.73
21
-8.57603
62
1
0
LINE
8
Undeflected
10
1284.51
20
-7.3
11
1284.2
21
-7.5873
62
2
0
LINE
8
Undeflected
10
1284.2
20
-7.5873
11
1283.96
21
-7.94094
62
3
0
LINE
8
Undeflected
10
1283.96
20
-7.94094
11
1283.86
21
-8.15104
62
4
0
LINE
8
Undeflected
10
1283.73
20
-8.59259
11
1283.58
21
-9.35301
62
5
0
LINE
8
Undeflected
10
1283.16
20
-11.0323
11
1283.04
21
-11.4551
62
6
0
LINE
8
Undeflected
10
1283.04
20
-11.4551
11
1282.93
21
-11.8079
62
7
0
LINE
8
Undeflected
10
1282.93
20
-11.8079
11
1282.84
21
-12.0947
62
8
0
LINE
8
Undeflected
10
1282.84
20
-12.0947
11
1282.77
21
-12.3188
62
9
0
LINE
8
Undeflected
10
1282.77
20
-12.3188
11
1282.68
21
-12.5983
62
10
0
LINE
8
Undeflected
10
1282.68
20
-12.6057
11
1282.67
21
-12.6334
62
1
0
LINE
8
Undeflected
10
1282.67
20
-12.6372
11
1282.66
21
-12.6573
62
2
0
LINE
8
Undeflected
10
1282.66
20
-12.6572
11
1282.67
21
-12.638
62
3
0
LINE
8
Undeflected
10
1282.67
20
-12.6372
11
1282.68
21
-12.6141
62
4
0
LINE
8
Undeflected
10
1283.7
20
-8.72539
11
1283.55
21
-9.46809
62
5
0
LINE
8
Undeflected
10
1283.16
20
-11.0323
11
1283.04
21
-11.4548
62
6
0
LINE
8
Undeflected
10
1283.04
20
-11.4548
11
1282.93
21
-11.8076
62
7
0
LINE
8
Undeflected
10
1282.93
20
-11.8076
11
1282.84
21
-12.0945
62
8
0
LINE
8
Undeflected
10
1282.84
20
-12.0945
11
1282.77
21
-12.3189
62
9
0
LINE
8
Undeflected
10
1282.73
20
-12.4618
11
1282.69
21
-12.5837
62
10
0
LINE
8
Undeflected
10
1283.73
20
-8.5835
11
1283.61
21
-9.20079
62
1
0
LINE
8
Undeflected
10
1283.16
20
-11.0321
11
1283.01
21
-11.5534
62
2
0
LINE
8
Undeflected
10
1283.01
20
-11.5534
11
1282.93
21
-11.8397
62
3
0
LINE
8
Undeflected
10
1282.93
20
-11.8397
11
1282.84
21
-12.1047
62
4
0
LINE
8
Undeflected
10
1282.84
20
-12.1047
11
1282.77
21
-12.339
62
5
0
LINE
8
Undeflected
10
1282.77
20
-12.339
11
1282.7
21
-12.5263
62
6
0
LINE
8
Undeflected
10
1282.67
20
-12.6345
11
1282.74
21
-12.434
62
7
0
LINE
8
Undeflected
10
1282.74
20
-12.434
11
1282.83
21
-12.1385
62
8
0
LINE
8
Undeflected
10
1282.83
20
-12.1385
11
1282.93
21
-11.8184
62
9
0
LINE
8
Undeflected
10
1282.93
20
-11.8184
11
1283.06
21
-11.3921
62
10
0
LINE
8
Undeflected
10
1283.48
20
-9.77464
11
1283.69
21
-8.79193
62
1
0
LINE
8
Undeflected
10
1282.26
20
-7.28201
11
1282.27
21
-7.18014
62
2
0
LINE
8
Undeflected
10
1282.68
20
-8.59259
11
1282.68
21
-9.32232
62
3
0
LINE
8
Undeflected
10
1282.68
20
-11.0745
11
1282.68
21
-11.5435
62
4
0
LINE
8
Undeflected
10
1282.68
20
-11.5435
11
1282.68
21
-11.9322
62
5
0
LINE
8
Undeflected
10
1282.68
20
-11.9322
11
1282.68
21
-12.2366
62
6
0
LINE
8
Undeflected
10
1282.68
20
-12.2366
11
1282.68
21
-12.4538
62
7
0
LINE
8
Undeflected
10
1282.68
20
-12.4538
11
1282.68
21
-12.5815
62
8
0
LINE
8
Undeflected
10
1282.23
20
-8.03862
11
1282.51
21
-8.19876
62
9
0
LINE
8
Undeflected
10
1282.51
20
-8.19876
11
1282.63
21
-8.41297
62
10
0
LINE
8
Undeflected
10
1282.63
20
-8.41297
11
1282.66
21
-8.49959
62
1
0
LINE
8
Undeflected
10
1282.23
20
-12.9361
11
1282.23
21
-12.889
62
2
0
LINE
8
Undeflected
10
1282.23
20
-12.889
11
1282.23
21
-12.748
62
3
0
LINE
8
Undeflected
10
1282.23
20
-12.748
11
1282.23
21
-12.5147
62
4
0
LINE
8
Undeflected
10
1282.23
20
-12.5147
11
1282.23
21
-12.1912
62
5
0
LINE
8
Undeflected
10
1282.23
20
-12.1912
11
1282.23
21
-11.781
62
6
0
LINE
8
Undeflected
10
1282.23
20
-11.781
11
1282.23
21
-11.288
62
7
0
LINE
8
Undeflected
10
1282.23
20
-9.48631
11
1282.23
21
-8.7282
62
8
0
LINE
8
Undeflected
10
1282.66
20
-12.6573
11
1282.44
21
-12.8831
62
9
0
LINE
8
Undeflected
10
1282.44
20
-12.8831
11
1282.23
21
-12.9361
62
10
0
LINE
8
Undeflected
10
1280.4
20
-8.04396
11
1282.23
21
-8.03862
62
1
0
LINE
8
Undeflected
10
1280.4
20
-12.3934
11
1280.4
21
-12.6825
62
2
0
LINE
8
Undeflected
10
1280.4
20
-12.6825
11
1280.4
21
-12.8797
62
3
0
LINE
8
Undeflected
10
1280.4
20
-12.8797
11
1280.4
21
-12.9833
62
4
0
LINE
8
Undeflected
10
1280.4
20
-13
11
1280.4
21
-12.9525
62
5
0
LINE
8
Undeflected
10
1280.4
20
-12.9525
11
1280.4
21
-12.8106
62
6
0
LINE
8
Undeflected
10
1280.4
20
-12.8106
11
1280.4
21
-12.5757
62
7
0
LINE
8
Undeflected
10
1280.4
20
-12.5757
11
1280.4
21
-12.2501
62
8
0
LINE
8
Undeflected
10
1280.4
20
-9.32625
11
1280.4
21
-8.54802
62
9
0
LINE
8
Undeflected
10
1282.23
20
-12.9361
11
1280.4
21
-13
62
10
0
LINE
8
Undeflected
10
1280.4
20
-7.00224
11
1280.5
21
-7
62
1
0
LINE
8
Undeflected
10
1282.3
20
-7
11
1280.5
21
-7
62
2
0
LINE
8
Undeflected
10
1282.23
20
-8.03862
11
1282.24
21
-7.69579
62
3
0
LINE
8
Undeflected
10
1282.24
20
-7.69579
11
1282.25
21
-7.40082
62
4
0
LINE
8
Undeflected
10
1282.25
20
-7.40082
11
1282.27
21
-7.17822
62
5
0
LINE
8
Undeflected
10
1282.27
20
-7.17822
11
1282.28
21
-7.04351
62
6
0
LINE
8
Undeflected
10
1282.28
20
-7.04351
11
1282.29
21
-7.01072
62
7
0
LINE
8
Undeflected
10
1280.4
20
-8.04396
11
1280.4
21
-7.70744
62
8
0
LINE
8
Undeflected
10
1280.4
20
-7.70744
11
1280.4
21
-7.42425
62
9
0
LINE
8
Undeflected
10
1280.4
20
-7.42425
11
1280.4
21
-7.2065
62
10
0
LINE
8
Undeflected
10
1280.4
20
-7.2065
11
1280.4
21
-7.06369
62
1
0
LINE
8
Undeflected
10
1280.4
20
-7.06369
11
1280.4
21
-7.00224
62
2
0
LINE
8
Undeflected
10
1282.34
20
-7
11
1281.41
21
-7
62
3
0
LINE
8
Undeflected
10
1282.35
20
-7
11
1282.34
21
-7
62
4
0
LINE
8
Undeflected
10
1282.3
20
-7
11
1282.32
21
-7
62
5
0
LINE
8
Undeflected
10
1282.34
20
-7
11
1282.35
21
-7
62
6
0
LINE
8
Undeflected
10
1282.34
20
-7
11
1282.34
21
-6.96507
62
7
0
LINE
8
Undeflected
10
1281.41
20
-6.95321
11
1282.34
21
-6.95321
62
8
0
LINE
8
Undeflected
10
1281.41
20
-7
11
1281.41
21
-6.96507
62
9
0
LINE
8
Undeflected
10
1282.62
20
-6.71825
11
1282.47
21
-6.92207
62
10
0
LINE
8
Undeflected
10
1282.47
20
-6.92207
11
1282.34
21
-6.95321
62
1
0
LINE
8
Undeflected
10
1282.34
20
-7
11
1282.64
21
-6.89894
62
2
0
LINE
8
Undeflected
10
1282.64
20
-6.89894
11
1282.82
21
-6.60841
62
3
0
LINE
8
Undeflected
10
1282.75
20
-6.69315
11
1282.81
21
-6.62243
62
4
0
LINE
8
Undeflected
10
1282.62
20
-6.71825
11
1282.74
21
-6.7008
62
5
0
LINE
8
Undeflected
10
1282.35
20
-7
11
1282.67
21
-6.88242
62
6
0
LINE
8
Undeflected
10
1282.67
20
-6.88242
11
1282.84
21
-6.58499
62
7
0
LINE
8
Undeflected
10
1282.84
20
-6.58499
11
1282.85
21
-6.53537
62
8
0
LINE
8
Undeflected
10
1282.83
20
-6.50872
11
1282.85
21
-6.50872
62
9
0
LINE
8
Undeflected
10
1282.82
20
-6.60841
11
1282.83
21
-6.51845
62
10
0
LINE
8
Undeflected
10
1282.97
20
-6.73476
11
1282.88
21
-6.58218
62
1
0
LINE
8
Undeflected
10
1282.88
20
-6.58218
11
1282.86
21
-6.53395
62
2
0
LINE
8
Undeflected
10
1282.86
20
-6.52286
11
1282.86
21
-6.44805
62
3
0
LINE
8
Undeflected
10
1282.36
20
-7.0113
11
1282.71
21
-6.8671
62
4
0
LINE
8
Undeflected
10
1282.71
20
-6.8671
11
1282.86
21
-6.52286
62
5
0
LINE
8
Undeflected
10
1282.36
20
-7.0113
11
1282.48
21
-7.12887
62
6
0
LINE
8
Undeflected
10
1282.48
20
-7.12887
11
1282.68
21
-7.25223
62
7
0
LINE
8
Undeflected
10
1282.68
20
-7.25223
11
1282.96
21
-7.34844
62
8
0
LINE
8
Undeflected
10
1282.96
20
-7.34844
11
1283.23
21
-7.36018
62
9
0
LINE
8
Undeflected
10
1283.23
20
-7.36018
11
1283.4
21
-7.32776
62
10
0
LINE
8
Undeflected
10
1282.35
20
-7
11
1282.36
21
-7.00916
62
1
0
LINE
8
Undeflected
10
1282.85
20
-6.50872
11
1282.86
21
-6.52286
62
2
0
LINE
8
Undeflected
10
1281.41
20
-6.95321
11
1281.69
21
-6.71825
62
3
0
LINE
8
Undeflected
10
1281.69
20
-6.71825
11
1282.62
21
-6.71825
62
4
0
LINE
8
Undeflected
10
1289.57
20
-6.56547
11
1289.7
21
-6.83518
62
5
0
LINE
8
Undeflected
10
1289.7
20
-6.83518
11
1290
21
-6.99574
62
6
0
LINE
8
Undeflected
10
1289.57
20
-6.50872
11
1289.57
21
-6.56547
62
7
0
LINE
8
Undeflected
10
1289.54
20
-6.50873
11
1289.57
21
-6.50872
62
8
0
LINE
8
Undeflected
10
1289.57
20
-6.56547
11
1289.77
21
-6.71633
62
9
0
LINE
8
Undeflected
10
1290.06
20
-6.95321
11
1290.06
21
-6.99904
62
10
0
LINE
8
Undeflected
10
1290.06
20
-7
11
1290.04
21
-6.99924
62
1
0
LINE
8
Undeflected
10
1288.07
20
-0.251949
11
1288.26
21
-0.1024
62
2
0
LINE
8
Undeflected
10
1288.07
20
-0.251949
11
1288.05
21
-1.59245
62
3
0
LINE
8
Undeflected
10
1288.25
20
-1.44273
11
1288.05
21
-1.58366
62
4
0
LINE
8
Undeflected
10
1287.84
20
-1.77347
11
1287.84
21
-1.72764
62
5
0
LINE
8
Undeflected
10
1287.84
20
-1.72668
11
1287.84
21
-1.76162
62
6
0
LINE
8
Undeflected
10
1284.56
20
-1.77347
11
1284.56
21
-1.72764
62
7
0
LINE
8
Undeflected
10
1284.56
20
-1.72668
11
1284.56
21
-1.76162
62
8
0
LINE
8
Undeflected
10
1287.84
20
-1.72668
11
1284.56
21
-1.72668
62
9
0
LINE
8
Undeflected
10
1284.35
20
-1.59245
11
1284.37
21
-1.72516
62
10
0
LINE
8
Undeflected
10
1284.15
20
-1.44273
11
1284.35
21
-1.58366
62
1
0
LINE
8
Undeflected
10
1284.56
20
-1.72668
11
1284.36
21
-1.62858
62
2
0
LINE
8
Undeflected
10
1284.36
20
-1.62858
11
1284.35
21
-1.59244
62
3
0
LINE
8
Undeflected
10
1284.35
20
-1.59245
11
1284.33
21
-0.251949
62
4
0
LINE
8
Undeflected
10
1284.13
20
-0.10223
11
1284.33
21
-0.243163
62
5
0
LINE
8
Undeflected
10
1284.33
20
-0.251949
11
1284.35
21
-1.59245
62
6
0
LINE
8
Undeflected
10
1288.05
20
-1.59245
11
1288.05
21
-1.72791
62
7
0
LINE
8
Undeflected
10
1288.05
20
-1.72791
11
1288.07
21
-0.251949
62
8
0
LINE
8
Undeflected
10
1284.52
20
-7.0802
11
1284.52
21
-7.22367
62
9
0
LINE
8
Undeflected
10
1284.33
20
-6.74805
11
1284.42
21
-7.03345
62
10
0
LINE
8
Undeflected
10
1284.42
20
-7.03345
11
1284.52
21
-7.0802
62
1
0
LINE
8
Undeflected
10
1284.13
20
-6.89777
11
1284.33
21
-6.75684
62
2
0
LINE
8
Undeflected
10
1284.33
20
-6.74805
11
1284.35
21
-5.40755
62
3
0
LINE
8
Undeflected
10
1284.35
20
-5.40756
11
1284.16
21
-5.5571
62
4
0
LINE
8
Undeflected
10
1284.38
20
-5.26278
11
1284.35
21
-5.39482
62
5
0
LINE
8
Undeflected
10
1284.56
20
-5.22653
11
1284.56
21
-5.27236
62
6
0
LINE
8
Undeflected
10
1284.56
20
-5.27332
11
1284.56
21
-5.23839
62
7
0
LINE
8
Undeflected
10
1284.35
20
-5.40756
11
1284.43
21
-5.30591
62
8
0
LINE
8
Undeflected
10
1284.43
20
-5.30591
11
1284.56
21
-5.27332
62
9
0
LINE
8
Undeflected
10
1287.84
20
-5.22653
11
1287.84
21
-5.27236
62
10
0
LINE
8
Undeflected
10
1287.84
20
-5.27332
11
1287.84
21
-5.23839
62
1
0
LINE
8
Undeflected
10
1284.56
20
-5.27332
11
1287.84
21
-5.27332
62
2
0
LINE
8
Undeflected
10
1288.05
20
-5.40755
11
1288.24
21
-5.5571
62
3
0
LINE
8
Undeflected
10
1288.05
20
-5.40755
11
1288.07
21
-6.74805
62
4
0
LINE
8
Undeflected
10
1288.27
20
-6.89777
11
1288.07
21
-6.75684
62
5
0
LINE
8
Undeflected
10
1288.07
20
-6.74805
11
1288.05
21
-5.27209
62
6
0
LINE
8
Undeflected
10
1288.05
20
-5.27209
11
1288.05
21
-5.40755
62
7
0
LINE
8
Undeflected
10
1291.7
20
-2.67922
11
1291.69
21
-2.67922
62
8
0
LINE
8
Undeflected
10
1291.68
20
-2.26976
11
1291.7
21
-2.19684
62
9
0
LINE
8
Undeflected
10
1291.7
20
-2.67922
11
1291.7
21
-2.32622
62
10
0
LINE
8
Undeflected
10
1291.7
20
-2.32622
11
1291.7
21
-2.17955
62
1
0
LINE
8
Undeflected
10
1291.7
20
-4.82045
11
1291.7
21
-4.70943
62
2
0
LINE
8
Undeflected
10
1291.7
20
-4.70943
11
1291.7
21
-4.3947
62
3
0
LINE
8
Undeflected
10
1291.7
20
-4.3947
11
1291.7
21
-4.32078
62
4
0
LINE
8
Undeflected
10
1291.21
20
-6.99959
11
1291.29
21
-6.98932
62
5
0
LINE
8
Undeflected
10
1280.4
20
-1
11
1280.4
21
-0.19651
62
6
0
LINE
8
Undeflected
10
1281.27
20
-0.196654
11
1281.55
21
-0.43147
62
7
0
LINE
8
Undeflected
10
1281.55
20
-0.43147
11
1281.54
21
-1
62
8
0
LINE
8
Undeflected
10
1280.4
20
-1
11
1281.54
21
-1
62
9
0
LINE
8
Undeflected
10
1281.54
20
-1
11
1281.54
21
-1.25026
62
10
0
LINE
8
Undeflected
10
1280.4
20
-1.25524
11
1280.4
21
-1
62
1
0
LINE
8
Undeflected
10
1280.91
20
-3.88781
11
1280.93
21
-4.21977
62
2
0
LINE
8
Undeflected
10
1280.93
20
-4.21977
11
1280.94
21
-4.25297
62
3
0
LINE
8
Undeflected
10
1280.94
20
-2.74702
11
1280.91
21
-3.07207
62
4
0
LINE
8
Undeflected
10
1280.91
20
-3.07207
11
1280.91
21
-3.11219
62
5
0
LINE
8
Undeflected
10
1280.83
20
-2.74719
11
1280.92
21
-2.74706
62
6
0
LINE
8
Undeflected
10
1280.92
20
-2.74706
11
1280.94
21
-2.74702
62
7
0
LINE
8
Undeflected
10
1280.79
20
-2.77713
11
1280.83
21
-2.74719
62
8
0
LINE
8
Undeflected
10
1280.74
20
-2.8567
11
1280.79
21
-2.77713
62
9
0
LINE
8
Undeflected
10
1280.73
20
-2.94209
11
1280.74
21
-2.8567
62
10
0
LINE
8
Undeflected
10
1280.74
20
-4.14314
11
1280.73
21
-4.05791
62
1
0
LINE
8
Undeflected
10
1280.79
20
-4.22288
11
1280.74
21
-4.14314
62
2
0
LINE
8
Undeflected
10
1280.83
20
-4.25281
11
1280.79
21
-4.22288
62
3
0
LINE
8
Undeflected
10
1280.94
20
-4.25297
11
1280.85
21
-4.25284
62
4
0
LINE
8
Undeflected
10
1280.85
20
-4.25284
11
1280.83
21
-4.25281
62
5
0
LINE
8
Undeflected
10
1284.52
20
0.0802008
11
1287.88
21
0.0802008
62
6
0
LINE
8
Undeflected
10
1287.88
20
0.0802008
11
1287.84
21
-1.77347
62
7
0
LINE
8
Undeflected
10
1284.55
20
-1.72666
11
1284.52
21
0.0802008
62
8
0
LINE
8
Undeflected
10
1287.88
20
-7.0802
11
1284.52
21
-7.0802
62
9
0
LINE
8
Undeflected
10
1284.52
20
-7.0802
11
1284.55
21
-5.27334
62
10
0
LINE
8
Undeflected
10
1287.84
20
-5.22653
11
1287.88
21
-7.0802
62
1
0
LINE
8
Undeflected
10
1256.02
20
-33
11
1255.98
21
-33.3973
62
2
0
LINE
8
Undeflected
10
1255.98
20
-33.3973
11
1255.86
21
-33.7788
62
3
0
LINE
8
Undeflected
10
1255.86
20
-33.7788
11
1255.67
21
-34.1293
62
4
0
LINE
8
Undeflected
10
1255.67
20
-34.1293
11
1255.41
21
-34.4347
62
5
0
LINE
8
Undeflected
10
1255.41
20
-34.4347
11
1255.1
21
-34.6829
62
6
0
LINE
8
Undeflected
10
1255.1
20
-34.6829
11
1254.74
21
-34.8641
62
7
0
LINE
8
Undeflected
10
1254.74
20
-34.8641
11
1254.36
21
-34.9709
62
8
0
LINE
8
Undeflected
10
1254.36
20
-34.9709
11
1254.16
21
-34.995
62
9
0
LINE
8
Undeflected
10
1254.02
20
-35
11
1220.32
21
-35
62
10
0
LINE
8
Undeflected
10
1220.32
20
-35
11
1219.92
21
-34.9601
62
1
0
LINE
8
Undeflected
10
1219.92
20
-34.9601
11
1219.54
21
-34.8421
62
2
0
LINE
8
Undeflected
10
1219.54
20
-34.8421
11
1219.19
21
-34.6507
62
3
0
LINE
8
Undeflected
10
1219.19
20
-34.6507
11
1218.89
21
-34.3934
62
4
0
LINE
8
Undeflected
10
1218.89
20
-34.3934
11
1218.64
21
-34.0806
62
5
0
LINE
8
Undeflected
10
1218.64
20
-34.0806
11
1218.46
21
-33.7247
62
6
0
LINE
8
Undeflected
10
1218.46
20
-33.7247
11
1218.35
21
-33.3399
62
7
0
LINE
8
Undeflected
10
1218.35
20
-33.3399
11
1218.33
21
-33.1415
62
8
0
LINE
8
Undeflected
10
1218.32
20
-33
11
1218.32
21
35
62
9
0
LINE
8
Undeflected
10
1218.32
20
35
11
1218.36
21
35.3973
62
10
0
LINE
8
Undeflected
10
1218.36
20
35.3973
11
1218.48
21
35.7788
62
1
0
LINE
8
Undeflected
10
1218.48
20
35.7788
11
1218.67
21
36.1293
62
2
0
LINE
8
Undeflected
10
1218.67
20
36.1293
11
1218.93
21
36.4347
62
3
0
LINE
8
Undeflected
10
1218.93
20
36.4347
11
1219.24
21
36.6829
62
4
0
LINE
8
Undeflected
10
1219.24
20
36.6829
11
1219.6
21
36.8641
62
5
0
LINE
8
Undeflected
10
1219.6
20
36.8641
11
1219.98
21
36.9709
62
6
0
LINE
8
Undeflected
10
1219.98
20
36.9709
11
1220.18
21
36.995
62
7
0
LINE
8
Undeflected
10
1220.32
20
37
11
1254.02
21
37
62
8
0
LINE
8
Undeflected
10
1254.02
20
37
11
1254.42
21
36.9601
62
9
0
LINE
8
Undeflected
10
1254.42
20
36.9601
11
1254.8
21
36.8421
62
10
0
LINE
8
Undeflected
10
1254.8
20
36.8421
11
1255.15
21
36.6507
62
1
0
LINE
8
Undeflected
10
1255.15
20
36.6507
11
1255.45
21
36.3934
62
2
0
LINE
8
Undeflected
10
1255.45
20
36.3934
11
1255.7
21
36.0806
62
3
0
LINE
8
Undeflected
10
1255.7
20
36.0806
11
1255.88
21
35.7247
62
4
0
LINE
8
Undeflected
10
1255.88
20
35.7247
11
1255.99
21
35.3399
62
5
0
LINE
8
Undeflected
10
1255.99
20
35.3399
11
1256.02
21
35.1415
62
6
0
LINE
8
Undeflected
10
1256.02
20
35
11
1256.02
21
24
62
7
0
LINE
8
Undeflected
10
1256.02
20
24
11
1256.06
21
23.6027
62
8
0
LINE
8
Undeflected
10
1256.06
20
23.6027
11
1256.18
21
23.2212
62
9
0
LINE
8
Undeflected
10
1256.18
20
23.2212
11
1256.37
21
22.8707
62
10
0
LINE
8
Undeflected
10
1256.37
20
22.8707
11
1256.63
21
22.5653
62
1
0
LINE
8
Undeflected
10
1256.63
20
22.5653
11
1256.94
21
22.3171
62
2
0
LINE
8
Undeflected
10
1256.94
20
22.3171
11
1257.3
21
22.1359
62
3
0
LINE
8
Undeflected
10
1257.3
20
22.1359
11
1257.68
21
22.0291
62
4
0
LINE
8
Undeflected
10
1257.68
20
22.0291
11
1257.88
21
22.005
62
5
0
LINE
8
Undeflected
10
1258.02
20
22
11
1271.82
21
22
62
6
0
LINE
8
Undeflected
10
1271.82
20
22
11
1272.22
21
21.9601
62
7
0
LINE
8
Undeflected
10
1272.22
20
21.9601
11
1272.6
21
21.8421
62
8
0
LINE
8
Undeflected
10
1272.6
20
21.8421
11
1272.95
21
21.6507
62
9
0
LINE
8
Undeflected
10
1272.95
20
21.6507
11
1273.25
21
21.3934
62
10
0
LINE
8
Undeflected
10
1273.25
20
21.3934
11
1273.5
21
21.0806
62
1
0
LINE
8
Undeflected
10
1273.5
20
21.0806
11
1273.68
21
20.7247
62
2
0
LINE
8
Undeflected
10
1273.68
20
20.7247
11
1273.79
21
20.3399
62
3
0
LINE
8
Undeflected
10
1273.79
20
20.3399
11
1273.82
21
20.1415
62
4
0
LINE
8
Undeflected
10
1273.82
20
20
11
1273.82
21
6
62
5
0
LINE
8
Undeflected
10
1273.82
20
6
11
1273.72
21
5.66121
62
6
0
LINE
8
Undeflected
10
1273.72
20
5.66121
11
1273.44
21
5.44078
62
7
0
LINE
8
Undeflected
10
1273.44
20
5.44078
11
1273.26
21
5.4015
62
8
0
LINE
8
Undeflected
10
1273.22
20
5.4
11
1256.82
21
5.4
62
9
0
LINE
8
Undeflected
10
1256.82
20
5.4
11
1256.48
21
5.2952
62
10
0
LINE
8
Undeflected
10
1256.48
20
5.2952
11
1256.26
21
5.01741
62
1
0
LINE
8
Undeflected
10
1256.26
20
5.01741
11
1256.22
21
4.84244
62
2
0
LINE
8
Undeflected
10
1256.22
20
4.8
11
1256.22
21
-0.8
62
3
0
LINE
8
Undeflected
10
1256.22
20
-0.8
11
1256.32
21
-1.13879
62
4
0
LINE
8
Undeflected
10
1256.32
20
-1.13879
11
1256.6
21
-1.35922
62
5
0
LINE
8
Undeflected
10
1256.6
20
-1.35922
11
1256.78
21
-1.3985
62
6
0
LINE
8
Undeflected
10
1256.82
20
-1.4
11
1273.22
21
-1.4
62
7
0
LINE
8
Undeflected
10
1273.22
20
-1.4
11
1273.56
21
-1.5048
62
8
0
LINE
8
Undeflected
10
1273.56
20
-1.5048
11
1273.78
21
-1.78259
62
9
0
LINE
8
Undeflected
10
1273.78
20
-1.78259
11
1273.82
21
-1.95756
62
10
0
LINE
8
Undeflected
10
1273.82
20
-2
11
1273.82
21
-18
62
1
0
LINE
8
Undeflected
10
1273.82
20
-18
11
1273.78
21
-18.3973
62
2
0
LINE
8
Undeflected
10
1273.78
20
-18.3973
11
1273.66
21
-18.7788
62
3
0
LINE
8
Undeflected
10
1273.66
20
-18.7788
11
1273.47
21
-19.1293
62
4
0
LINE
8
Undeflected
10
1273.47
20
-19.1293
11
1273.21
21
-19.4347
62
5
0
LINE
8
Undeflected
10
1273.21
20
-19.4347
11
1272.9
21
-19.6829
62
6
0
LINE
8
Undeflected
10
1272.9
20
-19.6829
11
1272.54
21
-19.8641
62
7
0
LINE
8
Undeflected
10
1272.54
20
-19.8641
11
1272.16
21
-19.9709
62
8
0
LINE
8
Undeflected
10
1272.16
20
-19.9709
11
1271.96
21
-19.995
62
9
0
LINE
8
Undeflected
10
1271.82
20
-20
11
1258.02
21
-20
62
10
0
LINE
8
Undeflected
10
1258.02
20
-20
11
1257.62
21
-20.0399
62
1
0
LINE
8
Undeflected
10
1257.62
20
-20.0399
11
1257.24
21
-20.1579
62
2
0
LINE
8
Undeflected
10
1257.24
20
-20.1579
11
1256.89
21
-20.3493
62
3
0
LINE
8
Undeflected
10
1256.89
20
-20.3493
11
1256.59
21
-20.6066
62
4
0
LINE
8
Undeflected
10
1256.59
20
-20.6066
11
1256.34
21
-20.9194
62
5
0
LINE
8
Undeflected
10
1256.34
20
-20.9194
11
1256.16
21
-21.2753
62
6
0
LINE
8
Undeflected
10
1256.16
20
-21.2753
11
1256.05
21
-21.6601
62
7
0
LINE
8
Undeflected
10
1256.05
20
-21.6601
11
1256.03
21
-21.8585
62
8
0
LINE
8
Undeflected
10
1256.02
20
-22
11
1256.02
21
-33
62
9
0
LINE
8
Undeflected
10
1250.02
20
-9.6
11
1249.54
21
-9.64784
62
10
0
LINE
8
Undeflected
10
1249.54
20
-9.64784
11
1249.09
21
-9.78945
62
1
0
LINE
8
Undeflected
10
1249.09
20
-9.78945
11
1248.66
21
-10.0192
62
2
0
LINE
8
Undeflected
10
1248.66
20
-10.0192
11
1248.3
21
-10.3279
62
3
0
LINE
8
Undeflected
10
1248.3
20
-10.3279
11
1248
21
-10.7033
62
4
0
LINE
8
Undeflected
10
1248
20
-10.7033
11
1247.78
21
-11.1303
62
5
0
LINE
8
Undeflected
10
1247.78
20
-11.1303
11
1247.65
21
-11.5921
62
6
0
LINE
8
Undeflected
10
1247.65
20
-11.5921
11
1247.62
21
-12.0701
62
7
0
LINE
8
Undeflected
10
1247.62
20
-12.0701
11
1247.68
21
-12.5453
62
8
0
LINE
8
Undeflected
10
1247.68
20
-12.5453
11
1247.84
21
-12.9988
62
9
0
LINE
8
Undeflected
10
1247.84
20
-12.9988
11
1248.08
21
-13.4124
62
10
0
LINE
8
Undeflected
10
1248.08
20
-13.4124
11
1248.4
21
-13.7697
62
1
0
LINE
8
Undeflected
10
1248.4
20
-13.7697
11
1248.78
21
-14.0565
62
2
0
LINE
8
Undeflected
10
1248.78
20
-14.0565
11
1249.22
21
-14.2613
62
3
0
LINE
8
Undeflected
10
1249.22
20
-14.2613
11
1249.68
21
-14.376
62
4
0
LINE
8
Undeflected
10
1249.68
20
-14.376
11
1249.92
21
-14.3979
62
5
0
LINE
8
Undeflected
10
1250.02
20
-14.4
11
1250.5
21
-14.3522
62
6
0
LINE
8
Undeflected
10
1250.5
20
-14.3522
11
1250.95
21
-14.2105
62
7
0
LINE
8
Undeflected
10
1250.95
20
-14.2105
11
1251.38
21
-13.9808
62
8
0
LINE
8
Undeflected
10
1251.38
20
-13.9808
11
1251.74
21
-13.6721
62
9
0
LINE
8
Undeflected
10
1251.74
20
-13.6721
11
1252.04
21
-13.2967
62
10
0
LINE
8
Undeflected
10
1252.04
20
-13.2967
11
1252.26
21
-12.8697
62
1
0
LINE
8
Undeflected
10
1252.26
20
-12.8697
11
1252.39
21
-12.4079
62
2
0
LINE
8
Undeflected
10
1252.39
20
-12.4079
11
1252.42
21
-11.9299
62
3
0
LINE
8
Undeflected
10
1252.42
20
-11.9299
11
1252.36
21
-11.4547
62
4
0
LINE
8
Undeflected
10
1252.36
20
-11.4547
11
1252.2
21
-11.0012
62
5
0
LINE
8
Undeflected
10
1252.2
20
-11.0012
11
1251.96
21
-10.5876
62
6
0
LINE
8
Undeflected
10
1251.96
20
-10.5876
11
1251.64
21
-10.2303
62
7
0
LINE
8
Undeflected
10
1251.64
20
-10.2303
11
1251.26
21
-9.94347
62
8
0
LINE
8
Undeflected
10
1251.26
20
-9.94347
11
1250.82
21
-9.73867
62
9
0
LINE
8
Undeflected
10
1250.82
20
-9.73867
11
1250.36
21
-9.62402
62
10
0
LINE
8
Undeflected
10
1250.36
20
-9.62402
11
1250.12
21
-9.60208
62
1
0
LINE
8
Undeflected
10
1250.02
20
15.6
11
1249.5
21
15.5482
62
2
0
LINE
8
Undeflected
10
1249.5
20
15.5482
11
1249.01
21
15.3948
62
3
0
LINE
8
Undeflected
10
1249.01
20
15.3948
11
1248.55
21
15.1459
62
4
0
LINE
8
Undeflected
10
1248.55
20
15.1459
11
1248.15
21
14.8114
62
5
0
LINE
8
Undeflected
10
1248.15
20
14.8114
11
1247.83
21
14.4048
62
6
0
LINE
8
Undeflected
10
1247.83
20
14.4048
11
1247.6
21
13.9421
62
7
0
LINE
8
Undeflected
10
1247.6
20
13.9421
11
1247.46
21
13.4419
62
8
0
LINE
8
Undeflected
10
1247.46
20
13.4419
11
1247.42
21
12.9241
62
9
0
LINE
8
Undeflected
10
1247.42
20
12.9241
11
1247.49
21
12.4093
62
10
0
LINE
8
Undeflected
10
1247.49
20
12.4093
11
1247.66
21
11.918
62
1
0
LINE
8
Undeflected
10
1247.66
20
11.918
11
1247.92
21
11.4699
62
2
0
LINE
8
Undeflected
10
1247.92
20
11.4699
11
1248.26
21
11.0828
62
3
0
LINE
8
Undeflected
10
1248.26
20
11.0828
11
1248.68
21
10.7721
62
4
0
LINE
8
Undeflected
10
1248.68
20
10.7721
11
1249.15
21
10.5502
62
5
0
LINE
8
Undeflected
10
1249.15
20
10.5502
11
1249.65
21
10.426
62
6
0
LINE
8
Undeflected
10
1249.65
20
10.426
11
1249.91
21
10.4022
62
7
0
LINE
8
Undeflected
10
1250.02
20
10.4
11
1250.54
21
10.4518
62
8
0
LINE
8
Undeflected
10
1250.54
20
10.4518
11
1251.03
21
10.6052
62
9
0
LINE
8
Undeflected
10
1251.03
20
10.6052
11
1251.49
21
10.8541
62
10
0
LINE
8
Undeflected
10
1251.49
20
10.8541
11
1251.89
21
11.1886
62
1
0
LINE
8
Undeflected
10
1251.89
20
11.1886
11
1252.21
21
11.5952
62
2
0
LINE
8
Undeflected
10
1252.21
20
11.5952
11
1252.44
21
12.0579
62
3
0
LINE
8
Undeflected
10
1252.44
20
12.0579
11
1252.58
21
12.5581
62
4
0
LINE
8
Undeflected
10
1252.58
20
12.5581
11
1252.62
21
13.0759
62
5
0
LINE
8
Undeflected
10
1252.62
20
13.0759
11
1252.55
21
13.5907
62
6
0
LINE
8
Undeflected
10
1252.55
20
13.5907
11
1252.38
21
14.082
62
7
0
LINE
8
Undeflected
10
1252.38
20
14.082
11
1252.12
21
14.5301
62
8
0
LINE
8
Undeflected
10
1252.12
20
14.5301
11
1251.78
21
14.9172
62
9
0
LINE
8
Undeflected
10
1251.78
20
14.9172
11
1251.36
21
15.2279
62
10
0
LINE
8
Undeflected
10
1251.36
20
15.2279
11
1250.89
21
15.4498
62
1
0
LINE
8
Undeflected
10
1250.89
20
15.4498
11
1250.39
21
15.574
62
2
0
LINE
8
Undeflected
10
1250.39
20
15.574
11
1250.13
21
15.5978
62
3
0
LINE
8
Undeflected
10
1235.24
20
-42.4489
11
1235.24
21
-41.8744
62
4
0
LINE
8
Undeflected
10
1235.24
20
-41.8744
11
1235.25
21
-41.2999
62
5
0
LINE
8
Undeflected
10
1235.25
20
-41.2999
11
1235.26
21
-40.7254
62
6
0
LINE
8
Undeflected
10
1235.26
20
-40.7254
11
1235.26
21
-40.151
62
7
0
LINE
8
Undeflected
10
1235.26
20
-40.151
11
1235.27
21
-39.5765
62
8
0
LINE
8
Undeflected
10
1235.27
20
-39.5765
11
1235.27
21
-39.002
62
9
0
LINE
8
Undeflected
10
1235.27
20
-39.002
11
1235.28
21
-38.4275
62
10
0
LINE
8
Undeflected
10
1235.28
20
-38.4275
11
1235.29
21
-37.8531
62
1
0
LINE
8
Undeflected
10
1235.29
20
-37.8531
11
1235.29
21
-37.2786
62
2
0
LINE
8
Undeflected
10
1235.29
20
-37.2786
11
1235.3
21
-36.7041
62
3
0
LINE
8
Undeflected
10
1235.2
20
-36.593
11
1234.84
21
-36.5314
62
4
0
LINE
8
Undeflected
10
1234.84
20
-36.5314
11
1234.73
21
-36.5291
62
5
0
LINE
8
Undeflected
10
1230.26
20
-40.6995
11
1230.26
21
-41.0234
62
6
0
LINE
8
Undeflected
10
1230.26
20
-41.1447
11
1230.33
21
-41.6054
62
7
0
LINE
8
Undeflected
10
1230.53
20
-42.0048
11
1230.67
21
-42.1742
62
8
0
LINE
8
Undeflected
10
1231.19
20
-42.5101
11
1231.6
21
-42.5841
62
9
0
LINE
8
Undeflected
10
1235.55
20
37
11
1235.27
21
37
62
10
0
LINE
8
Undeflected
10
1235.12
20
-35
11
1235.55
21
-35
62
1
0
LINE
8
Undeflected
10
1257.28
20
-20.1417
11
1257.66
21
-20.0318
62
2
0
LINE
8
Undeflected
10
1257.7
20
22.0261
11
1257.31
21
22.1293
62
3
0
LINE
8
Undeflected
10
1235.3
20
-36.7041
11
1235.29
21
-37.2786
62
4
0
LINE
8
Undeflected
10
1235.29
20
-37.2786
11
1235.29
21
-37.8531
62
5
0
LINE
8
Undeflected
10
1235.29
20
-37.8531
11
1235.28
21
-38.4275
62
6
0
LINE
8
Undeflected
10
1235.28
20
-38.4275
11
1235.27
21
-39.002
62
7
0
LINE
8
Undeflected
10
1235.27
20
-39.002
11
1235.27
21
-39.5765
62
8
0
LINE
8
Undeflected
10
1235.27
20
-39.5765
11
1235.26
21
-40.151
62
9
0
LINE
8
Undeflected
10
1235.26
20
-40.151
11
1235.26
21
-40.7254
62
10
0
LINE
8
Undeflected
10
1235.26
20
-40.7254
11
1235.25
21
-41.2999
62
1
0
LINE
8
Undeflected
10
1235.25
20
-41.2999
11
1235.24
21
-41.8744
62
2
0
LINE
8
Undeflected
10
1235.24
20
-41.8744
11
1235.24
21
-42.4489
62
3
0
LINE
8
Undeflected
10
1235.24
20
-42.4489
11
1234.88
21
-42.5815
62
4
0
LINE
8
Undeflected
10
1234.88
20
-42.5815
11
1234.7
21
-42.5842
62
5
0
LINE
8
Undeflected
10
1234.7
20
-42.5842
11
1231.62
21
-42.5843
62
6
0
LINE
8
Undeflected
10
1231.62
20
-42.5843
11
1231.22
21
-42.5205
62
7
0
LINE
8
Undeflected
10
1231.22
20
-42.5205
11
1230.84
21
-42.3228
62
8
0
LINE
8
Undeflected
10
1230.84
20
-42.3228
11
1230.53
21
-42.0019
62
9
0
LINE
8
Undeflected
10
1230.53
20
-42.0019
11
1230.33
21
-41.5993
62
10
0
LINE
8
Undeflected
10
1230.33
20
-41.5993
11
1230.26
21
-41.1447
62
1
0
LINE
8
Undeflected
10
1230.26
20
-41.1447
11
1230.26
21
-40.8206
62
2
0
LINE
8
Undeflected
10
1232.46
20
-36.5289
11
1234.7
21
-36.5289
62
3
0
LINE
8
Undeflected
10
1234.7
20
-36.5289
11
1235.06
21
-36.5525
62
4
0
LINE
8
Undeflected
10
1235.06
20
-36.5525
11
1235.3
21
-36.7041
62
5
  0
ENDSEC
  0
EOF
