  0
SECTION
  2
ENTITIES
0
LINE
8
Undeflected
10
-1280.4
20
-14.3934
11
-1280.15
21
-14.6292
62
6
0
LINE
8
Undeflected
10
-1280.15
20
-14.6292
11
-1280.1
21
-14.8305
62
7
0
LINE
8
Undeflected
10
-1280.4
20
3.39342
11
-1280.15
21
3.62918
62
8
0
LINE
8
Undeflected
10
-1280.15
20
3.62918
11
-1280.1
21
3.83054
62
9
0
LINE
8
Undeflected
10
-1280.1
20
-6.25686
11
-1280.1
21
-6.32188
62
10
0
LINE
8
Undeflected
10
-1280.1
20
-6.32188
11
-1280.1
21
-6.54279
62
1
0
LINE
8
Undeflected
10
-1280.1
20
-6.54279
11
-1280.1
21
-6.75592
62
2
0
LINE
8
Undeflected
10
-1280.1
20
-22.9324
11
-1280.1
21
21.1324
62
3
0
LINE
8
Undeflected
10
-1280.1
20
-22.9324
11
-1280.1
21
-22.6679
62
4
0
LINE
8
Undeflected
10
-1280.1
20
-22.6679
11
-1280.1
21
-22.6493
62
5
0
LINE
8
Undeflected
10
-1280.1
20
-22.6325
11
-1280.1
21
-21.8051
62
6
0
LINE
8
Undeflected
10
-1280.1
20
-20.9052
11
-1280.1
21
-21.0198
62
7
0
LINE
8
Undeflected
10
-1280.1
20
-21.0198
11
-1280.1
21
-21.3195
62
8
0
LINE
8
Undeflected
10
-1280.1
20
-21.3195
11
-1280.1
21
-21.6894
62
9
0
LINE
8
Undeflected
10
-1280.1
20
-21.6894
11
-1280.1
21
-21.8051
62
10
0
LINE
8
Undeflected
10
-1280.1
20
-21.8051
11
-1280.1
21
-21.4424
62
1
0
LINE
8
Undeflected
10
-1280.1
20
-21.4424
11
-1280.1
21
-21.1037
62
2
0
LINE
8
Undeflected
10
-1280.1
20
-21.1037
11
-1280.1
21
-20.9183
62
3
0
LINE
8
Undeflected
10
-1280.1
20
-21.8051
11
-1280.1
21
-22.6325
62
4
0
LINE
8
Undeflected
10
-1280.1
20
-22.925
11
-1280.1
21
-22.9319
62
5
0
LINE
8
Undeflected
10
-1280.1
20
21.1324
11
-1280.1
21
11.1249
62
6
0
LINE
8
Undeflected
10
-1280.1
20
8.28199
11
-1280.1
21
3.85091
62
7
0
LINE
8
Undeflected
10
-1280.1
20
-14.8509
11
-1280.1
21
-22.9322
62
8
0
LINE
8
Undeflected
10
-1280.1
20
-13.2479
11
-1280.1
21
-11.5749
62
9
0
LINE
8
Undeflected
10
-1280.1
20
6.89174
11
-1280.1
21
7.03963
62
10
0
LINE
8
Undeflected
10
-1280.1
20
7.03963
11
-1280.1
21
7.39052
62
1
0
LINE
8
Undeflected
10
-1280.1
20
7.39052
11
-1280.1
21
7.03655
62
2
0
LINE
8
Undeflected
10
-1280.1
20
7.03655
11
-1280.1
21
6.89174
62
3
0
LINE
8
Undeflected
10
-1280.1
20
6.89174
11
-1280.1
21
6.94584
62
4
0
LINE
8
Undeflected
10
-1280.1
20
6.94584
11
-1280.1
21
7.10196
62
5
0
LINE
8
Undeflected
10
-1280.1
20
7.10196
11
-1280.1
21
7.34443
62
6
0
LINE
8
Undeflected
10
-1280.1
20
7.34443
11
-1280.1
21
7.6503
62
7
0
LINE
8
Undeflected
10
-1280.1
20
7.6503
11
-1280.1
21
7.99111
62
8
0
LINE
8
Undeflected
10
-1280.1
20
11.1255
11
-1280.1
21
11.1255
62
9
0
LINE
8
Undeflected
10
-1280.1
20
7.99111
11
-1280.1
21
7.65026
62
10
0
LINE
8
Undeflected
10
-1280.1
20
7.65026
11
-1280.1
21
7.34438
62
1
0
LINE
8
Undeflected
10
-1280.1
20
7.34438
11
-1280.1
21
7.10192
62
2
0
LINE
8
Undeflected
10
-1280.1
20
7.10192
11
-1280.1
21
6.94582
62
3
0
LINE
8
Undeflected
10
-1280.1
20
6.94582
11
-1280.1
21
6.89174
62
4
0
LINE
8
Undeflected
10
-1279.8
20
21.4324
11
-1280.08
21
21.2387
62
5
0
LINE
8
Undeflected
10
-1280.08
20
21.2387
11
-1280.1
21
21.151
62
6
0
LINE
8
Undeflected
10
-1280.1
20
21.1324
11
-1279.91
21
21.412
62
7
0
LINE
8
Undeflected
10
-1279.91
20
21.412
11
-1279.82
21
21.4317
62
8
0
LINE
8
Undeflected
10
-1279.8
20
21.4324
11
-1279.8
21
21.4324
62
9
0
LINE
8
Undeflected
10
-1279.26
20
21.4372
11
-1278.93
21
21.44
62
10
0
LINE
8
Undeflected
10
-1278.93
20
21.44
11
-1278.7
21
21.4421
62
1
0
LINE
8
Undeflected
10
-1261.39
20
21.5931
11
-1261.36
21
21.5933
62
2
0
LINE
8
Undeflected
10
-1261.06
20
21.596
11
-1261.23
21
21.5945
62
3
0
LINE
8
Undeflected
10
-1261.23
20
21.5945
11
-1261.34
21
21.5936
62
4
0
LINE
8
Undeflected
10
-1261.34
20
21.5936
11
-1261.39
21
21.5931
62
5
0
LINE
8
Undeflected
10
-1261.39
20
21.5931
11
-1261.39
21
21.5931
62
6
0
LINE
8
Undeflected
10
-1261.06
20
21.596
11
-1278.61
21
21.4428
62
7
0
LINE
8
Undeflected
10
-1278.61
20
21.4428
11
-1278.96
21
21.4398
62
8
0
LINE
8
Undeflected
10
-1278.96
20
21.4398
11
-1279.28
21
21.4369
62
9
0
LINE
8
Undeflected
10
-1279.28
20
21.4369
11
-1279.55
21
21.4347
62
10
0
LINE
8
Undeflected
10
-1279.55
20
21.4347
11
-1279.72
21
21.4331
62
1
0
LINE
8
Undeflected
10
-1279.72
20
21.4331
11
-1279.8
21
21.4324
62
2
0
LINE
8
Undeflected
10
-1278.61
20
-23.2428
11
-1278.96
21
-23.2398
62
3
0
LINE
8
Undeflected
10
-1278.96
20
-23.2398
11
-1279.28
21
-23.2369
62
4
0
LINE
8
Undeflected
10
-1279.28
20
-23.2369
11
-1279.55
21
-23.2347
62
5
0
LINE
8
Undeflected
10
-1279.55
20
-23.2347
11
-1279.72
21
-23.2331
62
6
0
LINE
8
Undeflected
10
-1279.72
20
-23.2331
11
-1279.8
21
-23.2324
62
7
0
LINE
8
Undeflected
10
-1277.81
20
-23.2499
11
-1277.45
21
-23.2529
62
8
0
LINE
8
Undeflected
10
-1277.45
20
-23.2529
11
-1277.1
21
-23.256
62
9
0
LINE
8
Undeflected
10
-1277.1
20
-23.256
11
-1276.88
21
-23.2579
62
10
0
LINE
8
Undeflected
10
-1275.3
20
-23.2717
11
-1275.22
21
-23.2724
62
1
0
LINE
8
Undeflected
10
-1275.17
20
-23.2728
11
-1273.41
21
-23.2882
62
2
0
LINE
8
Undeflected
10
-1273.11
20
-23.2908
11
-1272.7
21
-23.2944
62
3
0
LINE
8
Undeflected
10
-1272.7
20
-23.2944
11
-1266.38
21
-23.3495
62
4
0
LINE
8
Undeflected
10
-1266.38
20
-23.3495
11
-1266.12
21
-23.3519
62
5
0
LINE
8
Undeflected
10
-1266.12
20
-23.3519
11
-1266.1
21
-23.352
62
6
0
LINE
8
Undeflected
10
-1266.1
20
-23.352
11
-1265.91
21
-23.3536
62
7
0
LINE
8
Undeflected
10
-1265.91
20
-23.3536
11
-1265.82
21
-23.3545
62
8
0
LINE
8
Undeflected
10
-1265.82
20
-23.3545
11
-1260.9
21
-23.3974
62
9
0
LINE
8
Undeflected
10
-1260.9
20
-23.3974
11
-1260.9
21
-23.3974
62
10
0
LINE
8
Undeflected
10
-1260.65
20
-23.3995
11
-1260.81
21
-23.3982
62
1
0
LINE
8
Undeflected
10
-1260.81
20
-23.3982
11
-1260.89
21
-23.3975
62
2
0
LINE
8
Undeflected
10
-1260.89
20
-23.3975
11
-1260.9
21
-23.3974
62
3
0
LINE
8
Undeflected
10
-1280.1
20
-20.9051
11
-1280.1
21
-21.0186
62
4
0
LINE
8
Undeflected
10
-1280.1
20
-21.0186
11
-1280.1
21
-21.3185
62
5
0
LINE
8
Undeflected
10
-1280.1
20
-21.3185
11
-1280.1
21
-21.69
62
6
0
LINE
8
Undeflected
10
-1280.1
20
-21.69
11
-1280.1
21
-21.8048
62
7
0
LINE
8
Undeflected
10
-1280.1
20
-22.9324
11
-1279.91
21
-23.212
62
8
0
LINE
8
Undeflected
10
-1279.91
20
-23.212
11
-1279.82
21
-23.2317
62
9
0
LINE
8
Undeflected
10
-1279.8
20
-23.2324
11
-1279.75
21
-23.2329
62
10
0
LINE
8
Undeflected
10
-1279.75
20
-23.2329
11
-1279.59
21
-23.2343
62
1
0
LINE
8
Undeflected
10
-1279.59
20
-23.2343
11
-1279.35
21
-23.2364
62
2
0
LINE
8
Undeflected
10
-1279.35
20
-23.2364
11
-1279.04
21
-23.2391
62
3
0
LINE
8
Undeflected
10
-1279.04
20
-23.2391
11
-1278.69
21
-23.2422
62
4
0
LINE
8
Undeflected
10
-1278.61
20
-23.2428
11
-1260.44
21
-23.4014
62
5
0
LINE
8
Undeflected
10
-1260.9
20
-23.3974
11
-1260.85
21
-23.3978
62
6
0
LINE
8
Undeflected
10
-1260.85
20
-23.3978
11
-1260.73
21
-23.3989
62
7
0
LINE
8
Undeflected
10
-1260.73
20
-23.3989
11
-1260.53
21
-23.4006
62
8
0
LINE
8
Undeflected
10
-1260.53
20
-23.4006
11
-1260.44
21
-23.4014
62
9
0
LINE
8
Undeflected
10
-1260.9
20
-23.3974
11
-1260.9
21
-23.3974
62
10
0
LINE
8
Undeflected
10
-1260.9
20
-23.3974
11
-1265.82
21
-23.3545
62
1
0
LINE
8
Undeflected
10
-1265.82
20
-23.3545
11
-1266.08
21
-23.3521
62
2
0
LINE
8
Undeflected
10
-1266.08
20
-23.3521
11
-1266.1
21
-23.352
62
3
0
LINE
8
Undeflected
10
-1266.1
20
-23.352
11
-1265.91
21
-23.3536
62
4
0
LINE
8
Undeflected
10
-1265.91
20
-23.3536
11
-1265.82
21
-23.3545
62
5
0
LINE
8
Undeflected
10
-1265.82
20
-23.3545
11
-1260.9
21
-23.3974
62
6
0
LINE
8
Undeflected
10
-1260.9
20
-23.3974
11
-1272.7
21
-23.2944
62
7
0
LINE
8
Undeflected
10
-1272.7
20
-23.2944
11
-1275.17
21
-23.2728
62
8
0
LINE
8
Undeflected
10
-1275.17
20
-23.2728
11
-1275.25
21
-23.2721
62
9
0
LINE
8
Undeflected
10
-1276.26
20
-23.2634
11
-1276.55
21
-23.2608
62
10
0
LINE
8
Undeflected
10
-1276.55
20
-23.2608
11
-1276.68
21
-23.2597
62
1
0
LINE
8
Undeflected
10
-1276.88
20
-23.2579
11
-1277.18
21
-23.2553
62
2
0
LINE
8
Undeflected
10
-1277.18
20
-23.2553
11
-1277.57
21
-23.2519
62
3
0
LINE
8
Undeflected
10
-1277.57
20
-23.2519
11
-1277.81
21
-23.2499
62
4
0
LINE
8
Undeflected
10
-1278.61
20
-23.2428
11
-1278.61
21
-23.0516
62
5
0
LINE
8
Undeflected
10
-1278.61
20
-23.0516
11
-1278.61
21
-22.9641
62
6
0
LINE
8
Undeflected
10
-1278.61
20
-22.9429
11
-1279.07
21
-22.9396
62
7
0
LINE
8
Undeflected
10
-1279.07
20
-22.9396
11
-1279.48
21
-22.9367
62
8
0
LINE
8
Undeflected
10
-1279.48
20
-22.9367
11
-1279.82
21
-22.9344
62
9
0
LINE
8
Undeflected
10
-1279.82
20
-22.9344
11
-1280.03
21
-22.9329
62
10
0
LINE
8
Undeflected
10
-1280.03
20
-22.9329
11
-1280.1
21
-22.9324
62
1
0
LINE
8
Undeflected
10
-1278.61
20
21.1429
11
-1278.61
21
-22.9429
62
2
0
LINE
8
Undeflected
10
-1280.1
20
21.1324
11
-1280.03
21
21.1329
62
3
0
LINE
8
Undeflected
10
-1280.03
20
21.1329
11
-1279.82
21
21.1344
62
4
0
LINE
8
Undeflected
10
-1279.82
20
21.1344
11
-1279.48
21
21.1367
62
5
0
LINE
8
Undeflected
10
-1279.48
20
21.1367
11
-1279.07
21
21.1396
62
6
0
LINE
8
Undeflected
10
-1279.07
20
21.1396
11
-1278.61
21
21.1429
62
7
0
LINE
8
Undeflected
10
-1278.61
20
21.1429
11
-1278.61
21
21.4225
62
8
0
LINE
8
Undeflected
10
-1278.61
20
21.4225
11
-1278.61
21
21.4421
62
9
0
LINE
8
Undeflected
10
-1278.61
20
21.1429
11
-1261.06
21
21.296
62
10
0
LINE
8
Undeflected
10
-1261.06
20
21.296
11
-1261.06
21
21.5756
62
1
0
LINE
8
Undeflected
10
-1261.06
20
21.5756
11
-1261.06
21
21.5952
62
2
0
LINE
8
Undeflected
10
-1259.11
20
22.413
11
-1259.51
21
22.1863
62
3
0
LINE
8
Undeflected
10
-1259.51
20
22.1863
11
-1259.9
21
21.9716
62
4
0
LINE
8
Undeflected
10
-1259.9
20
21.9716
11
-1260.29
21
21.7852
62
5
0
LINE
8
Undeflected
10
-1260.29
20
21.7852
11
-1260.67
21
21.6502
62
6
0
LINE
8
Undeflected
10
-1260.67
20
21.6502
11
-1260.87
21
21.611
62
7
0
LINE
8
Undeflected
10
-1261.06
20
21.296
11
-1260.73
21
21.3344
62
8
0
LINE
8
Undeflected
10
-1260.73
20
21.3344
11
-1260.36
21
21.454
62
9
0
LINE
8
Undeflected
10
-1260.36
20
21.454
11
-1259.97
21
21.6721
62
10
0
LINE
8
Undeflected
10
-1259.97
20
21.6721
11
-1259.55
21
21.9968
62
1
0
LINE
8
Undeflected
10
-1259.55
20
21.9968
11
-1259.33
21
22.1953
62
2
0
LINE
8
Undeflected
10
-1260.44
20
-23.1014
11
-1278.61
21
-22.9429
62
3
0
LINE
8
Undeflected
10
-1259.11
20
-23.713
11
-1259.4
21
-23.5042
62
4
0
LINE
8
Undeflected
10
-1259.4
20
-23.5042
11
-1259.68
21
-23.3354
62
5
0
LINE
8
Undeflected
10
-1259.68
20
-23.3354
11
-1260.07
21
-23.1626
62
6
0
LINE
8
Undeflected
10
-1260.07
20
-23.1626
11
-1260.44
21
-23.1014
62
7
0
LINE
8
Undeflected
10
-1259.11
20
-48.8691
11
-1259.11
21
-23.713
62
8
0
LINE
8
Undeflected
10
-1259
20
-48.8701
11
-1259.11
21
-48.8691
62
9
0
LINE
8
Undeflected
10
-1259
20
-48.8701
11
-1259
21
-48.8395
62
10
0
LINE
8
Undeflected
10
-1259
20
-48.8395
11
-1259
21
-22
62
1
0
LINE
8
Undeflected
10
-1259
20
20
11
-1259
21
46.8395
62
2
0
LINE
8
Undeflected
10
-1259
20
46.8395
11
-1259
21
46.8701
62
3
0
LINE
8
Undeflected
10
-1259.11
20
46.8691
11
-1259
21
46.8701
62
4
0
LINE
8
Undeflected
10
-1259.11
20
22.413
11
-1259.11
21
46.8691
62
5
0
LINE
8
Undeflected
10
-1278.12
20
1.5766
11
-1278.01
21
1.57658
62
6
0
LINE
8
Undeflected
10
-1278.01
20
1.57658
11
-1278.01
21
0.209651
62
7
0
LINE
8
Undeflected
10
-1278.01
20
0.209651
11
-1277.88
21
-0.139044
62
8
0
LINE
8
Undeflected
10
-1277.88
20
-0.139044
11
-1277.56
21
-0.369237
62
9
0
LINE
8
Undeflected
10
-1277.56
20
-0.369237
11
-1277.24
21
-0.460623
62
10
0
LINE
8
Undeflected
10
-1277.24
20
-0.460623
11
-1277.05
21
-0.473563
62
1
0
LINE
8
Undeflected
10
-1275.48
20
-0.473798
11
-1277.05
21
-0.473563
62
2
0
LINE
8
Undeflected
10
-1274.78
20
0.225667
11
-1274.85
21
-0.0914166
62
3
0
LINE
8
Undeflected
10
-1274.85
20
-0.0914166
11
-1275.07
21
-0.340323
62
4
0
LINE
8
Undeflected
10
-1275.07
20
-0.340323
11
-1275.36
21
-0.465132
62
5
0
LINE
8
Undeflected
10
-1275.36
20
-0.465132
11
-1275.48
21
-0.473798
62
6
0
LINE
8
Undeflected
10
-1274.78
20
4.77433
11
-1274.78
21
0.225667
62
7
0
LINE
8
Undeflected
10
-1275.48
20
5.4738
11
-1275.16
21
5.39772
62
8
0
LINE
8
Undeflected
10
-1275.16
20
5.39772
11
-1274.91
21
5.18523
62
9
0
LINE
8
Undeflected
10
-1274.91
20
5.18523
11
-1274.79
21
4.88619
62
10
0
LINE
8
Undeflected
10
-1274.79
20
4.88619
11
-1274.78
21
4.77433
62
1
0
LINE
8
Undeflected
10
-1277.05
20
5.47356
11
-1275.48
21
5.4738
62
2
0
LINE
8
Undeflected
10
-1277.05
20
5.47356
11
-1277.41
21
5.42428
62
3
0
LINE
8
Undeflected
10
-1277.41
20
5.42428
11
-1277.8
21
5.2227
62
4
0
LINE
8
Undeflected
10
-1277.8
20
5.2227
11
-1277.98
21
4.96311
62
5
0
LINE
8
Undeflected
10
-1277.98
20
4.96311
11
-1278.01
21
4.79035
62
6
0
LINE
8
Undeflected
10
-1278.01
20
4.79035
11
-1278.01
21
3.42342
62
7
0
LINE
8
Undeflected
10
-1278.01
20
3.42342
11
-1278.12
21
3.4234
62
8
0
LINE
8
Undeflected
10
-1278.12
20
3.4234
11
-1278.45
21
3.25885
62
9
0
LINE
8
Undeflected
10
-1278.45
20
3.25885
11
-1278.52
21
3.02357
62
10
0
LINE
8
Undeflected
10
-1278.52
20
3.02357
11
-1278.52
21
1.97643
62
1
0
LINE
8
Undeflected
10
-1278.52
20
1.97643
11
-1278.36
21
1.65329
62
2
0
LINE
8
Undeflected
10
-1278.36
20
1.65329
11
-1278.12
21
1.5766
62
3
0
LINE
8
Undeflected
10
-1260.6
20
46.8482
11
-1260.53
21
46.8492
62
4
0
LINE
8
Undeflected
10
-1260.53
20
46.8492
11
-1260.32
21
46.8522
62
5
0
LINE
8
Undeflected
10
-1260.32
20
46.8522
11
-1259.98
21
46.8568
62
6
0
LINE
8
Undeflected
10
-1259.98
20
46.8568
11
-1259.57
21
46.8626
62
7
0
LINE
8
Undeflected
10
-1259.57
20
46.8626
11
-1259.11
21
46.8691
62
8
0
LINE
8
Undeflected
10
-1260.6
20
22.393
11
-1260.6
21
46.8482
62
9
0
LINE
8
Undeflected
10
-1259.11
20
22.413
11
-1259.57
21
22.4069
62
10
0
LINE
8
Undeflected
10
-1259.57
20
22.4069
11
-1259.98
21
22.4013
62
1
0
LINE
8
Undeflected
10
-1259.98
20
22.4013
11
-1260.32
21
22.3969
62
2
0
LINE
8
Undeflected
10
-1260.32
20
22.3969
11
-1260.53
21
22.394
62
3
0
LINE
8
Undeflected
10
-1260.53
20
22.394
11
-1260.6
21
22.393
62
4
0
LINE
8
Undeflected
10
-1261.39
20
21.5931
11
-1261.08
21
21.6589
62
5
0
LINE
8
Undeflected
10
-1261.08
20
21.6589
11
-1260.82
21
21.8407
62
6
0
LINE
8
Undeflected
10
-1260.82
20
21.8407
11
-1260.65
21
22.1097
62
7
0
LINE
8
Undeflected
10
-1260.65
20
22.1097
11
-1260.6
21
22.3434
62
8
0
LINE
8
Undeflected
10
-1260.6
20
46.8482
11
-1260.6
21
22.393
62
9
0
LINE
8
Undeflected
10
-1260.6
20
35.2829
11
-1260.6
21
34.8816
62
10
0
LINE
8
Undeflected
10
-1260.6
20
34.8816
11
-1260.6
21
34.4846
62
1
0
LINE
8
Undeflected
10
-1260.6
20
34.4846
11
-1260.6
21
34.0956
62
2
0
LINE
8
Undeflected
10
-1260.6
20
34.0956
11
-1260.6
21
33.7187
62
3
0
LINE
8
Undeflected
10
-1260.6
20
33.7187
11
-1260.6
21
33.3576
62
4
0
LINE
8
Undeflected
10
-1260.6
20
33.3576
11
-1260.6
21
33.0159
62
5
0
LINE
8
Undeflected
10
-1260.6
20
33.0159
11
-1260.6
21
32.6971
62
6
0
LINE
8
Undeflected
10
-1260.6
20
32.6971
11
-1260.6
21
32.4042
62
7
0
LINE
8
Undeflected
10
-1260.6
20
32.4042
11
-1260.6
21
32.1403
62
8
0
LINE
8
Undeflected
10
-1260.6
20
32.1403
11
-1260.6
21
31.9079
62
9
0
LINE
8
Undeflected
10
-1260.6
20
31.9079
11
-1260.6
21
31.7095
62
10
0
LINE
8
Undeflected
10
-1260.6
20
31.7095
11
-1260.6
21
31.5469
62
1
0
LINE
8
Undeflected
10
-1260.6
20
31.5469
11
-1260.6
21
31.4218
62
2
0
LINE
8
Undeflected
10
-1260.6
20
31.4218
11
-1260.6
21
31.3354
62
3
0
LINE
8
Undeflected
10
-1260.6
20
31.3354
11
-1260.6
21
31.2887
62
4
0
LINE
8
Undeflected
10
-1260.6
20
31.2798
11
-1260.6
21
31.2999
62
5
0
LINE
8
Undeflected
10
-1260.6
20
31.2999
11
-1260.6
21
31.36
62
6
0
LINE
8
Undeflected
10
-1260.6
20
31.36
11
-1260.6
21
31.4594
62
7
0
LINE
8
Undeflected
10
-1260.6
20
31.4594
11
-1260.6
21
31.5972
62
8
0
LINE
8
Undeflected
10
-1260.6
20
31.5972
11
-1260.6
21
31.772
62
9
0
LINE
8
Undeflected
10
-1260.6
20
31.772
11
-1260.6
21
31.982
62
10
0
LINE
8
Undeflected
10
-1260.6
20
31.982
11
-1260.6
21
32.2252
62
1
0
LINE
8
Undeflected
10
-1260.6
20
32.2252
11
-1260.6
21
32.4991
62
2
0
LINE
8
Undeflected
10
-1260.6
20
32.4991
11
-1260.6
21
32.801
62
3
0
LINE
8
Undeflected
10
-1260.6
20
32.801
11
-1260.6
21
33.1279
62
4
0
LINE
8
Undeflected
10
-1260.6
20
33.1279
11
-1260.6
21
33.4765
62
5
0
LINE
8
Undeflected
10
-1260.6
20
33.4765
11
-1260.6
21
33.8433
62
6
0
LINE
8
Undeflected
10
-1260.6
20
33.8433
11
-1260.6
21
34.2246
62
7
0
LINE
8
Undeflected
10
-1260.6
20
34.2246
11
-1260.6
21
34.6167
62
8
0
LINE
8
Undeflected
10
-1260.6
20
34.6167
11
-1260.6
21
35.0156
62
9
0
LINE
8
Undeflected
10
-1260.6
20
35.3171
11
-1260.6
21
35.7184
62
10
0
LINE
8
Undeflected
10
-1260.6
20
35.7184
11
-1260.6
21
36.1154
62
1
0
LINE
8
Undeflected
10
-1260.6
20
36.1154
11
-1260.6
21
36.5044
62
2
0
LINE
8
Undeflected
10
-1260.6
20
36.5044
11
-1260.6
21
36.8813
62
3
0
LINE
8
Undeflected
10
-1260.6
20
36.8813
11
-1260.6
21
37.2424
62
4
0
LINE
8
Undeflected
10
-1260.6
20
37.2424
11
-1260.6
21
37.5841
62
5
0
LINE
8
Undeflected
10
-1260.6
20
37.5841
11
-1260.6
21
37.9029
62
6
0
LINE
8
Undeflected
10
-1260.6
20
37.9029
11
-1260.6
21
38.1958
62
7
0
LINE
8
Undeflected
10
-1260.6
20
38.1958
11
-1260.6
21
38.4597
62
8
0
LINE
8
Undeflected
10
-1260.6
20
38.4597
11
-1260.6
21
38.6921
62
9
0
LINE
8
Undeflected
10
-1260.6
20
38.6921
11
-1260.6
21
38.8905
62
10
0
LINE
8
Undeflected
10
-1260.6
20
38.8905
11
-1260.6
21
39.0531
62
1
0
LINE
8
Undeflected
10
-1260.6
20
39.0531
11
-1260.6
21
39.1782
62
2
0
LINE
8
Undeflected
10
-1260.6
20
39.1782
11
-1260.6
21
39.2646
62
3
0
LINE
8
Undeflected
10
-1260.6
20
39.2646
11
-1260.6
21
39.3113
62
4
0
LINE
8
Undeflected
10
-1260.6
20
39.3202
11
-1260.6
21
39.3001
62
5
0
LINE
8
Undeflected
10
-1260.6
20
39.3001
11
-1260.6
21
39.24
62
6
0
LINE
8
Undeflected
10
-1260.6
20
39.24
11
-1260.6
21
39.1406
62
7
0
LINE
8
Undeflected
10
-1260.6
20
39.1406
11
-1260.6
21
39.0028
62
8
0
LINE
8
Undeflected
10
-1260.6
20
39.0028
11
-1260.6
21
38.828
62
9
0
LINE
8
Undeflected
10
-1260.6
20
38.828
11
-1260.6
21
38.618
62
10
0
LINE
8
Undeflected
10
-1260.6
20
38.618
11
-1260.6
21
38.3748
62
1
0
LINE
8
Undeflected
10
-1260.6
20
38.3748
11
-1260.6
21
38.1009
62
2
0
LINE
8
Undeflected
10
-1260.6
20
38.1009
11
-1260.6
21
37.799
62
3
0
LINE
8
Undeflected
10
-1260.6
20
37.799
11
-1260.6
21
37.4721
62
4
0
LINE
8
Undeflected
10
-1260.6
20
37.4721
11
-1260.6
21
37.1235
62
5
0
LINE
8
Undeflected
10
-1260.6
20
37.1235
11
-1260.6
21
36.7567
62
6
0
LINE
8
Undeflected
10
-1260.6
20
36.7567
11
-1260.6
21
36.3754
62
7
0
LINE
8
Undeflected
10
-1260.6
20
36.3754
11
-1260.6
21
35.9833
62
8
0
LINE
8
Undeflected
10
-1260.6
20
35.9833
11
-1260.6
21
35.5844
62
9
0
LINE
8
Undeflected
10
-1260.31
20
47.1482
11
-1260.58
21
46.952
62
10
0
LINE
8
Undeflected
10
-1260.58
20
46.952
11
-1260.6
21
46.8642
62
1
0
LINE
8
Undeflected
10
-1259
20
47.1709
11
-1259.11
21
47.169
62
2
0
LINE
8
Undeflected
10
-1259.11
20
47.169
11
-1259.46
21
47.1628
62
3
0
LINE
8
Undeflected
10
-1259.46
20
47.1628
11
-1259.79
21
47.1572
62
4
0
LINE
8
Undeflected
10
-1259.79
20
47.1572
11
-1260.05
21
47.1526
62
5
0
LINE
8
Undeflected
10
-1260.05
20
47.1526
11
-1260.23
21
47.1496
62
6
0
LINE
8
Undeflected
10
-1260.23
20
47.1496
11
-1260.3
21
47.1482
62
7
0
LINE
8
Undeflected
10
-1259.11
20
47.169
11
-1259
21
47.1709
62
8
0
LINE
8
Undeflected
10
-1259
20
47.1709
11
-1259.38
21
47.1644
62
9
0
LINE
8
Undeflected
10
-1259.38
20
47.1644
11
-1259
21
47.1709
62
10
0
LINE
8
Undeflected
10
-1259.11
20
47.1405
11
-1259
21
47.1395
62
1
0
LINE
8
Undeflected
10
-1249.85
20
47.0597
11
-1259
21
47.1395
62
2
0
LINE
8
Undeflected
10
-1259
20
47.1395
11
-1259.11
21
47.1405
62
3
0
LINE
8
Undeflected
10
-1259.11
20
47.1405
11
-1259
21
47.1395
62
4
0
LINE
8
Undeflected
10
-1254.6
20
45.6495
11
-1254.6
21
45.9068
62
5
0
LINE
8
Undeflected
10
-1256.69
20
45.3163
11
-1257.28
21
45.3215
62
6
0
LINE
8
Undeflected
10
-1254.5
20
45.6495
11
-1254.5
21
45.9077
62
7
0
LINE
8
Undeflected
10
-1257.16
20
45.1911
11
-1257.28
21
45.1921
62
8
0
LINE
8
Undeflected
10
-1257.48
20
-28.5828
11
-1257.58
21
-28.48
62
9
0
LINE
8
Undeflected
10
-1257.7
20
20.0261
11
-1257.7
21
26.1972
62
10
0
LINE
8
Undeflected
10
-1257.7
20
26.1972
11
-1257.58
21
26.48
62
1
0
LINE
8
Undeflected
10
-1257.28
20
-32.8202
11
-1257.28
21
-28.5828
62
2
0
LINE
8
Undeflected
10
-1254.4
20
-47.9085
11
-1254.5
21
-47.9077
62
3
0
LINE
8
Undeflected
10
-1260.6
20
22.393
11
-1260.53
21
22.394
62
4
0
LINE
8
Undeflected
10
-1260.53
20
22.394
11
-1260.32
21
22.3969
62
5
0
LINE
8
Undeflected
10
-1260.32
20
22.3969
11
-1259.98
21
22.4013
62
6
0
LINE
8
Undeflected
10
-1259.98
20
22.4013
11
-1259.79
21
22.404
62
7
0
LINE
8
Undeflected
10
-1254.5
20
45.9077
11
-1254.4
21
45.9085
62
8
0
LINE
8
Undeflected
10
-1236.66
20
36.2684
11
-1236.96
21
36.3079
62
9
0
LINE
8
Undeflected
10
-1237.26
20
36.4119
11
-1237.37
21
36.4613
62
10
0
LINE
8
Undeflected
10
-1235.55
20
36.2684
11
-1235.74
21
36.2684
62
1
0
LINE
8
Undeflected
10
-1235.55
20
35
11
-1235.55
21
36.2684
62
2
0
LINE
8
Undeflected
10
-1260.6
20
-48.8482
11
-1260.6
21
-23.6974
62
3
0
LINE
8
Undeflected
10
-1260.6
20
-48.8482
11
-1260.53
21
-48.8492
62
4
0
LINE
8
Undeflected
10
-1260.53
20
-48.8492
11
-1260.32
21
-48.8522
62
5
0
LINE
8
Undeflected
10
-1260.32
20
-48.8522
11
-1259.98
21
-48.8568
62
6
0
LINE
8
Undeflected
10
-1259.98
20
-48.8568
11
-1259.57
21
-48.8626
62
7
0
LINE
8
Undeflected
10
-1259.57
20
-48.8626
11
-1259.11
21
-48.8691
62
8
0
LINE
8
Undeflected
10
-1260.6
20
-23.6974
11
-1260.53
21
-23.6982
62
9
0
LINE
8
Undeflected
10
-1260.53
20
-23.6982
11
-1260.32
21
-23.7004
62
10
0
LINE
8
Undeflected
10
-1260.32
20
-23.7004
11
-1259.98
21
-23.7038
62
1
0
LINE
8
Undeflected
10
-1259.98
20
-23.7038
11
-1259.57
21
-23.7082
62
2
0
LINE
8
Undeflected
10
-1259.57
20
-23.7082
11
-1259.11
21
-23.713
62
3
0
LINE
8
Undeflected
10
-1260.6
20
-23.6974
11
-1260.6
21
-25.9
62
4
0
LINE
8
Undeflected
10
-1260.6
20
-25.9
11
-1260.6
21
-48.8482
62
5
0
LINE
8
Undeflected
10
-1260.6
20
-23.6974
11
-1260.6
21
-23.6974
62
6
0
LINE
8
Undeflected
10
-1260.6
20
-23.6974
11
-1260.6
21
-24.3828
62
7
0
LINE
8
Undeflected
10
-1260.6
20
-24.3828
11
-1260.6
21
-24.6678
62
8
0
LINE
8
Undeflected
10
-1260.6
20
-24.6678
11
-1260.6
21
-24.6825
62
9
0
LINE
8
Undeflected
10
-1260.6
20
-24.6825
11
-1260.6
21
-24.4758
62
10
0
LINE
8
Undeflected
10
-1260.6
20
-24.4758
11
-1260.6
21
-24.3828
62
1
0
LINE
8
Undeflected
10
-1260.6
20
-24.3828
11
-1260.6
21
-23.6974
62
2
0
LINE
8
Undeflected
10
-1260.6
20
-23.6974
11
-1260.6
21
-24.4
62
3
0
LINE
8
Undeflected
10
-1260.6
20
-24.4
11
-1260.6
21
-24.6853
62
4
0
LINE
8
Undeflected
10
-1260.6
20
-24.6853
11
-1260.6
21
-24.7
62
5
0
LINE
8
Undeflected
10
-1260.6
20
-24.7
11
-1260.6
21
-24.493
62
6
0
LINE
8
Undeflected
10
-1260.6
20
-24.493
11
-1260.6
21
-24.4
62
7
0
LINE
8
Undeflected
10
-1260.6
20
-24.4
11
-1260.6
21
-23.6974
62
8
0
LINE
8
Undeflected
10
-1260.6
20
-37.3171
11
-1260.6
21
-37.7184
62
9
0
LINE
8
Undeflected
10
-1260.6
20
-37.7184
11
-1260.6
21
-38.1154
62
10
0
LINE
8
Undeflected
10
-1260.6
20
-38.1154
11
-1260.6
21
-38.5044
62
1
0
LINE
8
Undeflected
10
-1260.6
20
-38.5044
11
-1260.6
21
-38.8813
62
2
0
LINE
8
Undeflected
10
-1260.6
20
-38.8813
11
-1260.6
21
-39.2424
62
3
0
LINE
8
Undeflected
10
-1260.6
20
-39.2424
11
-1260.6
21
-39.5841
62
4
0
LINE
8
Undeflected
10
-1260.6
20
-39.5841
11
-1260.6
21
-39.9029
62
5
0
LINE
8
Undeflected
10
-1260.6
20
-39.9029
11
-1260.6
21
-40.1958
62
6
0
LINE
8
Undeflected
10
-1260.6
20
-40.1958
11
-1260.6
21
-40.4597
62
7
0
LINE
8
Undeflected
10
-1260.6
20
-40.4597
11
-1260.6
21
-40.6921
62
8
0
LINE
8
Undeflected
10
-1260.6
20
-40.6921
11
-1260.6
21
-40.8905
62
9
0
LINE
8
Undeflected
10
-1260.6
20
-40.8905
11
-1260.6
21
-41.0531
62
10
0
LINE
8
Undeflected
10
-1260.6
20
-41.0531
11
-1260.6
21
-41.1782
62
1
0
LINE
8
Undeflected
10
-1260.6
20
-41.1782
11
-1260.6
21
-41.2646
62
2
0
LINE
8
Undeflected
10
-1260.6
20
-41.2646
11
-1260.6
21
-41.3113
62
3
0
LINE
8
Undeflected
10
-1260.6
20
-41.3202
11
-1260.6
21
-41.3001
62
4
0
LINE
8
Undeflected
10
-1260.6
20
-41.3001
11
-1260.6
21
-41.24
62
5
0
LINE
8
Undeflected
10
-1260.6
20
-41.24
11
-1260.6
21
-41.1406
62
6
0
LINE
8
Undeflected
10
-1260.6
20
-41.1406
11
-1260.6
21
-41.0028
62
7
0
LINE
8
Undeflected
10
-1260.6
20
-41.0028
11
-1260.6
21
-40.828
62
8
0
LINE
8
Undeflected
10
-1260.6
20
-40.828
11
-1260.6
21
-40.618
62
9
0
LINE
8
Undeflected
10
-1260.6
20
-40.618
11
-1260.6
21
-40.3748
62
10
0
LINE
8
Undeflected
10
-1260.6
20
-40.3748
11
-1260.6
21
-40.1009
62
1
0
LINE
8
Undeflected
10
-1260.6
20
-40.1009
11
-1260.6
21
-39.799
62
2
0
LINE
8
Undeflected
10
-1260.6
20
-39.799
11
-1260.6
21
-39.4721
62
3
0
LINE
8
Undeflected
10
-1260.6
20
-39.4721
11
-1260.6
21
-39.1235
62
4
0
LINE
8
Undeflected
10
-1260.6
20
-39.1235
11
-1260.6
21
-38.7567
62
5
0
LINE
8
Undeflected
10
-1260.6
20
-38.7567
11
-1260.6
21
-38.3754
62
6
0
LINE
8
Undeflected
10
-1260.6
20
-38.3754
11
-1260.6
21
-37.9833
62
7
0
LINE
8
Undeflected
10
-1260.6
20
-37.9833
11
-1260.6
21
-37.5844
62
8
0
LINE
8
Undeflected
10
-1260.6
20
-37.2829
11
-1260.6
21
-36.8816
62
9
0
LINE
8
Undeflected
10
-1260.6
20
-36.8816
11
-1260.6
21
-36.4846
62
10
0
LINE
8
Undeflected
10
-1260.6
20
-36.4846
11
-1260.6
21
-36.0956
62
1
0
LINE
8
Undeflected
10
-1260.6
20
-36.0956
11
-1260.6
21
-35.7187
62
2
0
LINE
8
Undeflected
10
-1260.6
20
-35.7187
11
-1260.6
21
-35.3576
62
3
0
LINE
8
Undeflected
10
-1260.6
20
-35.3576
11
-1260.6
21
-35.0159
62
4
0
LINE
8
Undeflected
10
-1260.6
20
-35.0159
11
-1260.6
21
-34.6971
62
5
0
LINE
8
Undeflected
10
-1260.6
20
-34.6971
11
-1260.6
21
-34.4042
62
6
0
LINE
8
Undeflected
10
-1260.6
20
-34.4042
11
-1260.6
21
-34.1403
62
7
0
LINE
8
Undeflected
10
-1260.6
20
-34.1403
11
-1260.6
21
-33.9079
62
8
0
LINE
8
Undeflected
10
-1260.6
20
-33.9079
11
-1260.6
21
-33.7095
62
9
0
LINE
8
Undeflected
10
-1260.6
20
-33.7095
11
-1260.6
21
-33.5469
62
10
0
LINE
8
Undeflected
10
-1260.6
20
-33.5469
11
-1260.6
21
-33.4218
62
1
0
LINE
8
Undeflected
10
-1260.6
20
-33.4218
11
-1260.6
21
-33.3354
62
2
0
LINE
8
Undeflected
10
-1260.6
20
-33.3354
11
-1260.6
21
-33.2887
62
3
0
LINE
8
Undeflected
10
-1260.6
20
-33.2798
11
-1260.6
21
-33.2999
62
4
0
LINE
8
Undeflected
10
-1260.6
20
-33.2999
11
-1260.6
21
-33.36
62
5
0
LINE
8
Undeflected
10
-1260.6
20
-33.36
11
-1260.6
21
-33.4594
62
6
0
LINE
8
Undeflected
10
-1260.6
20
-33.4594
11
-1260.6
21
-33.5972
62
7
0
LINE
8
Undeflected
10
-1260.6
20
-33.5972
11
-1260.6
21
-33.772
62
8
0
LINE
8
Undeflected
10
-1260.6
20
-33.772
11
-1260.6
21
-33.982
62
9
0
LINE
8
Undeflected
10
-1260.6
20
-33.982
11
-1260.6
21
-34.2252
62
10
0
LINE
8
Undeflected
10
-1260.6
20
-34.2252
11
-1260.6
21
-34.4991
62
1
0
LINE
8
Undeflected
10
-1260.6
20
-34.4991
11
-1260.6
21
-34.801
62
2
0
LINE
8
Undeflected
10
-1260.6
20
-34.801
11
-1260.6
21
-35.1279
62
3
0
LINE
8
Undeflected
10
-1260.6
20
-35.1279
11
-1260.6
21
-35.4765
62
4
0
LINE
8
Undeflected
10
-1260.6
20
-35.4765
11
-1260.6
21
-35.8433
62
5
0
LINE
8
Undeflected
10
-1260.6
20
-35.8433
11
-1260.6
21
-36.2246
62
6
0
LINE
8
Undeflected
10
-1260.6
20
-36.2246
11
-1260.6
21
-36.6167
62
7
0
LINE
8
Undeflected
10
-1260.6
20
-36.6167
11
-1260.6
21
-37.0156
62
8
0
LINE
8
Undeflected
10
-1260.6
20
-29.0424
11
-1260.6
21
-25.8576
62
9
0
LINE
8
Undeflected
10
-1260.6
20
-25.273
11
-1260.6
21
-25.2593
62
10
0
LINE
8
Undeflected
10
-1260.6
20
-25.2579
11
-1260.6
21
-25.2579
62
1
0
LINE
8
Undeflected
10
-1260.6
20
-25.2579
11
-1260.6
21
-25.2654
62
2
0
LINE
8
Undeflected
10
-1260.6
20
-25.8576
11
-1260.6
21
-29.0424
62
3
0
LINE
8
Undeflected
10
-1260.6
20
-29.6421
11
-1260.6
21
-29.6421
62
4
0
LINE
8
Undeflected
10
-1260.6
20
-33.2798
11
-1260.6
21
-30.6066
62
5
0
LINE
8
Undeflected
10
-1260.6
20
-30.6066
11
-1260.6
21
-33.2798
62
6
0
LINE
8
Undeflected
10
-1260.6
20
-33.3934
11
-1260.6
21
-30.6066
62
7
0
LINE
8
Undeflected
10
-1260.6
20
-30.6066
11
-1260.6
21
-33.3934
62
8
0
LINE
8
Undeflected
10
-1260.31
20
-49.1482
11
-1260.58
21
-48.952
62
9
0
LINE
8
Undeflected
10
-1260.58
20
-48.952
11
-1260.6
21
-48.8642
62
10
0
LINE
8
Undeflected
10
-1260.31
20
-49.1482
11
-1260.31
21
-49.1482
62
1
0
LINE
8
Undeflected
10
-1260.6
20
-48.8482
11
-1260.41
21
-49.1278
62
2
0
LINE
8
Undeflected
10
-1260.41
20
-49.1278
11
-1260.32
21
-49.1475
62
3
0
LINE
8
Undeflected
10
-1260.31
20
-49.1482
11
-1260.25
21
-49.1491
62
4
0
LINE
8
Undeflected
10
-1260.25
20
-49.1491
11
-1260.1
21
-49.1518
62
5
0
LINE
8
Undeflected
10
-1260.1
20
-49.1518
11
-1259.85
21
-49.1561
62
6
0
LINE
8
Undeflected
10
-1259.85
20
-49.1561
11
-1259.54
21
-49.1615
62
7
0
LINE
8
Undeflected
10
-1259.54
20
-49.1615
11
-1259.19
21
-49.1676
62
8
0
LINE
8
Undeflected
10
-1259.11
20
-48.8691
11
-1259.11
21
-49.1486
62
9
0
LINE
8
Undeflected
10
-1259.11
20
-49.1486
11
-1259.11
21
-49.1683
62
10
0
LINE
8
Undeflected
10
-1260.44
20
-23.4014
11
-1260.08
21
-23.4472
62
1
0
LINE
8
Undeflected
10
-1260.08
20
-23.4472
11
-1259.68
21
-23.5472
62
2
0
LINE
8
Undeflected
10
-1259.68
20
-23.5472
11
-1259.25
21
-23.6702
62
3
0
LINE
8
Undeflected
10
-1260.6
20
-23.6974
11
-1260.79
21
-23.4178
62
4
0
LINE
8
Undeflected
10
-1260.79
20
-23.4178
11
-1260.88
21
-23.3981
62
5
0
LINE
8
Undeflected
10
-1260.44
20
-23.4014
11
-1260.44
21
-23.2101
62
6
0
LINE
8
Undeflected
10
-1260.44
20
-23.2101
11
-1260.44
21
-23.1226
62
7
0
LINE
8
Undeflected
10
-1259.11
20
-49.1405
11
-1259
21
-49.1395
62
8
0
LINE
8
Undeflected
10
-1259
20
-49.1395
11
-1249.85
21
-49.0597
62
9
0
LINE
8
Undeflected
10
-1259
20
-49.1395
11
-1259.11
21
-49.1405
62
10
0
LINE
8
Undeflected
10
-1249.85
20
-48.9583
11
-1249.85
21
-48.7048
62
1
0
LINE
8
Undeflected
10
-1249.85
20
-48.5597
11
-1249.65
21
-48.5597
62
2
0
LINE
8
Undeflected
10
-1249.65
20
-48.5597
11
-1249.65
21
-48.8393
62
3
0
LINE
8
Undeflected
10
-1249.65
20
-48.8393
11
-1249.65
21
-48.8589
62
4
0
LINE
8
Undeflected
10
-1249.85
20
-49.0597
11
-1249.65
21
-48.8721
62
5
0
LINE
8
Undeflected
10
-1249.85
20
-49.0597
11
-1249.65
21
-48.8576
62
6
0
LINE
8
Undeflected
10
-1249.65
20
-48.1483
11
-1249.65
21
-48.0217
62
7
0
LINE
8
Undeflected
10
-1249.65
20
-48.0217
11
-1249.65
21
-47.75
62
8
0
LINE
8
Undeflected
10
-1249.65
20
-47.75
11
-1249.65
21
-47.6493
62
9
0
LINE
8
Undeflected
10
-1249.65
20
-47.6493
11
-1249.65
21
-48.5597
62
10
0
LINE
8
Undeflected
10
-1249.65
20
-48.8597
11
-1249.65
21
-48.8597
62
1
0
LINE
8
Undeflected
10
-1249.65
20
-48.8597
11
-1249.65
21
-48.7597
62
2
0
LINE
8
Undeflected
10
-1249.65
20
-48.7597
11
-1249.65
21
-48.1483
62
3
0
LINE
8
Undeflected
10
-1257.48
20
26.5828
11
-1257.58
21
26.48
62
4
0
LINE
8
Undeflected
10
-1257.58
20
26.48
11
-1257.7
21
26.1972
62
5
0
LINE
8
Undeflected
10
-1257.7
20
26.1972
11
-1257.7
21
20.0261
62
6
0
LINE
8
Undeflected
10
-1257.7
20
-22.0261
11
-1257.7
21
-28.1972
62
7
0
LINE
8
Undeflected
10
-1257.7
20
-28.1972
11
-1257.58
21
-28.48
62
8
0
LINE
8
Undeflected
10
-1257.58
20
-28.48
11
-1257.48
21
-28.5828
62
9
0
LINE
8
Undeflected
10
-1257.48
20
-28.5828
11
-1257.48
21
-47.6852
62
10
0
LINE
8
Undeflected
10
-1257.48
20
-47.6852
11
-1257.32
21
-48.0072
62
1
0
LINE
8
Undeflected
10
-1257.32
20
-48.0072
11
-1257.15
21
-48.0795
62
2
0
LINE
8
Undeflected
10
-1257.08
20
-48.0851
11
-1249.85
21
-48.1483
62
3
0
LINE
8
Undeflected
10
-1249.85
20
-48.1483
11
-1249.85
21
-48.7597
62
4
0
LINE
8
Undeflected
10
-1249.85
20
-48.7597
11
-1259
21
-48.8395
62
5
0
LINE
8
Undeflected
10
-1259
20
46.8395
11
-1249.85
21
46.7597
62
6
0
LINE
8
Undeflected
10
-1249.85
20
46.7597
11
-1249.85
21
46.1483
62
7
0
LINE
8
Undeflected
10
-1249.85
20
46.1483
11
-1257.08
21
46.0851
62
8
0
LINE
8
Undeflected
10
-1257.08
20
46.0851
11
-1257.4
21
45.9194
62
9
0
LINE
8
Undeflected
10
-1257.4
20
45.9194
11
-1257.48
21
45.6852
62
10
0
LINE
8
Undeflected
10
-1257.48
20
45.6852
11
-1257.48
21
26.5828
62
1
0
LINE
8
Undeflected
10
-1257.48
20
-28.5828
11
-1257.28
21
-28.5828
62
2
0
LINE
8
Undeflected
10
-1257.28
20
-47.6852
11
-1257.48
21
-47.6852
62
3
0
LINE
8
Undeflected
10
-1257.28
20
-46.9802
11
-1257.28
21
-47.6852
62
4
0
LINE
8
Undeflected
10
-1257.28
20
-46.9595
11
-1257.28
21
-46.9802
62
5
0
LINE
8
Undeflected
10
-1257.28
20
-28.5828
11
-1257.28
21
-46.9595
62
6
0
LINE
8
Undeflected
10
-1257.28
20
-28.5828
11
-1257.28
21
-22.1417
62
7
0
LINE
8
Undeflected
10
-1257.08
20
-46.9567
11
-1257.28
21
-46.9595
62
8
0
LINE
8
Undeflected
10
-1257.08
20
-22.2343
11
-1257.08
21
-46.9567
62
9
0
LINE
8
Undeflected
10
-1257.08
20
-22.2343
11
-1256.75
21
-22.4561
62
10
0
LINE
8
Undeflected
10
-1256.75
20
-22.4561
11
-1256.47
21
-22.7395
62
1
0
LINE
8
Undeflected
10
-1256.47
20
-22.7395
11
-1256.25
21
-23.0731
62
2
0
LINE
8
Undeflected
10
-1256.25
20
-23.0731
11
-1256.1
21
-23.4436
62
3
0
LINE
8
Undeflected
10
-1256.1
20
-23.4436
11
-1256.03
21
-23.8364
62
4
0
LINE
8
Undeflected
10
-1255.38
20
-47.4107
11
-1257.08
21
-46.9567
62
5
0
LINE
8
Undeflected
10
-1249.28
20
-47.4107
11
-1255.38
21
-47.4107
62
6
0
LINE
8
Undeflected
10
-1248.88
20
-47.8105
11
-1249.05
21
-47.4873
62
7
0
LINE
8
Undeflected
10
-1249.05
20
-47.4873
11
-1249.28
21
-47.4107
62
8
0
LINE
8
Undeflected
10
-1248.88
20
-48.9107
11
-1248.88
21
-47.8105
62
9
0
LINE
8
Undeflected
10
-1232.92
20
-48.9081
11
-1248.88
21
-48.9107
62
10
0
LINE
8
Undeflected
10
-1229.86
20
-45.8493
11
-1232.92
21
-48.9081
62
1
0
LINE
8
Undeflected
10
-1229.86
20
-45.3452
11
-1229.86
21
-45.8505
62
2
0
LINE
8
Undeflected
10
-1229.86
20
-45.3452
11
-1237.74
21
-45.3452
62
3
0
LINE
8
Undeflected
10
-1237.74
20
-38.6547
11
-1237.74
21
-45.3452
62
4
0
LINE
8
Undeflected
10
-1236.66
20
-38.2684
11
-1237.06
21
-38.3373
62
5
0
LINE
8
Undeflected
10
-1237.06
20
-38.3373
11
-1237.39
21
-38.4689
62
6
0
LINE
8
Undeflected
10
-1237.39
20
-38.4689
11
-1237.74
21
-38.6547
62
7
0
LINE
8
Undeflected
10
-1235.75
20
-38.2684
11
-1236.66
21
-38.2684
62
8
0
LINE
8
Undeflected
10
-1235.75
20
-38.2684
11
-1235.75
21
-37
62
9
0
LINE
8
Undeflected
10
-1254.02
20
-37
11
-1235.75
21
-37
62
10
0
LINE
8
Undeflected
10
-1256.02
20
-24
11
-1256.02
21
-35
62
1
0
LINE
8
Undeflected
10
-1229.67
20
-45.1572
11
-1229.86
21
-45.3452
62
2
0
LINE
8
Undeflected
10
-1236.78
20
-45.1572
11
-1229.67
21
-45.1572
62
3
0
LINE
8
Undeflected
10
-1237.74
20
-45.3452
11
-1237.36
21
-45.2592
62
4
0
LINE
8
Undeflected
10
-1237.36
20
-45.2592
11
-1236.97
21
-45.1833
62
5
0
LINE
8
Undeflected
10
-1236.97
20
-45.1833
11
-1236.78
21
-45.1572
62
6
0
LINE
8
Undeflected
10
-1231.62
20
-44.5955
11
-1231.62
21
-44.6137
62
7
0
LINE
8
Undeflected
10
-1231.62
20
-44.6137
11
-1231.36
21
-44.6592
62
8
0
LINE
8
Undeflected
10
-1231.36
20
-44.6592
11
-1231.05
21
-44.6936
62
9
0
LINE
8
Undeflected
10
-1231.05
20
-44.6936
11
-1230.77
21
-44.7047
62
10
0
LINE
8
Undeflected
10
-1230.77
20
-44.7047
11
-1229.62
21
-44.7047
62
1
0
LINE
8
Undeflected
10
-1229.62
20
-44.7047
11
-1229.62
21
-44.7265
62
2
0
LINE
8
Undeflected
10
-1229.62
20
-44.7265
11
-1229.66
21
-45.1349
62
3
0
LINE
8
Undeflected
10
-1229.67
20
-45.1572
11
-1229.66
21
-45.1349
62
4
0
LINE
8
Undeflected
10
-1236.78
20
-45.1572
11
-1235.62
21
-44.7352
62
5
0
LINE
8
Undeflected
10
-1235.62
20
-44.7352
11
-1235.38
21
-44.6651
62
6
0
LINE
8
Undeflected
10
-1235.38
20
-44.6651
11
-1235
21
-44.6083
62
7
0
LINE
8
Undeflected
10
-1235
20
-44.6083
11
-1234.7
21
-44.5955
62
8
0
LINE
8
Undeflected
10
-1234.7
20
-44.5955
11
-1231.62
21
-44.5955
62
9
0
LINE
8
Undeflected
10
-1236.78
20
-45.1572
11
-1236.72
21
-44.9567
62
10
0
LINE
8
Undeflected
10
-1236.72
20
-44.9567
11
-1236.68
21
-44.8919
62
1
0
LINE
8
Undeflected
10
-1235.76
20
-44.5566
11
-1236.68
21
-44.8919
62
2
0
LINE
8
Undeflected
10
-1235.76
20
-44.5566
11
-1235.63
21
-44.7339
62
3
0
LINE
8
Undeflected
10
-1236.68
20
-44.8919
11
-1236.97
21
-44.9805
62
4
0
LINE
8
Undeflected
10
-1236.97
20
-44.9805
11
-1237.29
21
-45.1303
62
5
0
LINE
8
Undeflected
10
-1237.29
20
-45.1303
11
-1237.63
21
-45.2945
62
6
0
LINE
8
Undeflected
10
-1237.63
20
-45.2945
11
-1237.74
21
-45.3452
62
7
0
LINE
8
Undeflected
10
-1229.86
20
-45.8505
11
-1229.66
21
-45.8504
62
8
0
LINE
8
Undeflected
10
-1229.66
20
-45.1349
11
-1229.66
21
-45.8504
62
9
0
LINE
8
Undeflected
10
-1235.55
20
-38.2684
11
-1235.74
21
-38.2684
62
10
0
LINE
8
Undeflected
10
-1235.55
20
-37
11
-1235.55
21
-38.2684
62
1
0
LINE
8
Undeflected
10
-1236.68
20
-38.6721
11
-1236.68
21
-44.8919
62
2
0
LINE
8
Undeflected
10
-1237.74
20
-38.6547
11
-1237.39
21
-38.6564
62
3
0
LINE
8
Undeflected
10
-1237.39
20
-38.6564
11
-1237.06
21
-38.6612
62
4
0
LINE
8
Undeflected
10
-1237.06
20
-38.6612
11
-1236.77
21
-38.6689
62
5
0
LINE
8
Undeflected
10
-1236.77
20
-38.6689
11
-1236.68
21
-38.6721
62
6
0
LINE
8
Undeflected
10
-1237.74
20
-38.6547
11
-1237.39
21
-38.5721
62
7
0
LINE
8
Undeflected
10
-1237.39
20
-38.5721
11
-1237.05
21
-38.5058
62
8
0
LINE
8
Undeflected
10
-1237.05
20
-38.5058
11
-1236.66
21
-38.4683
62
9
0
LINE
8
Undeflected
10
-1236.66
20
-38.4683
11
-1236.54
21
-38.4722
62
10
0
LINE
8
Undeflected
10
-1236.54
20
-38.4722
11
-1236.68
21
-38.6629
62
1
0
LINE
8
Undeflected
10
-1236.54
20
-38.4722
11
-1235.68
21
-38.5023
62
2
0
LINE
8
Undeflected
10
-1235.68
20
-38.5023
11
-1235.59
21
-38.5066
62
3
0
LINE
8
Undeflected
10
-1235.59
20
-38.5066
11
-1235.52
21
-38.5091
62
4
0
LINE
8
Undeflected
10
-1235.52
20
-38.5091
11
-1235.76
21
-38.7043
62
5
0
LINE
8
Undeflected
10
-1236.68
20
-38.6721
11
-1235.76
21
-38.7043
62
6
0
LINE
8
Undeflected
10
-1235.76
20
-38.7043
11
-1235.76
21
-44.5566
62
7
0
LINE
8
Undeflected
10
-1229.72
20
-45.9918
11
-1229.85
21
-45.8557
62
8
0
LINE
8
Undeflected
10
-1232.92
20
-48.9089
11
-1232.78
21
-49.0516
62
9
0
LINE
8
Undeflected
10
-1229.72
20
-45.9918
11
-1232.78
21
-49.052
62
10
0
LINE
8
Undeflected
10
-1229.72
20
-45.9918
11
-1229.68
21
-46.0083
62
1
0
LINE
8
Undeflected
10
-1229.68
20
-46.0083
11
-1229.8
21
-46.1287
62
2
0
LINE
8
Undeflected
10
-1229.8
20
-46.1287
11
-1229.82
21
-46.1492
62
3
0
LINE
8
Undeflected
10
-1232.76
20
-49.0906
11
-1229.82
21
-46.1492
62
4
0
LINE
8
Undeflected
10
-1232.76
20
-49.0906
11
-1232.78
21
-49.052
62
5
0
LINE
8
Undeflected
10
-1229.66
20
-45.8504
11
-1229.71
21
-45.9793
62
6
0
LINE
8
Undeflected
10
-1257.28
20
-47.1143
11
-1257.17
21
-47.1876
62
7
0
LINE
8
Undeflected
10
-1255.47
20
-47.6426
11
-1257.17
21
-47.1887
62
8
0
LINE
8
Undeflected
10
-1255.47
20
-47.6426
11
-1255.42
21
-47.6493
62
9
0
LINE
8
Undeflected
10
-1255.42
20
-47.6493
11
-1249.32
21
-47.6493
62
10
0
LINE
8
Undeflected
10
-1249.32
20
-47.6493
11
-1249.12
21
-47.8492
62
1
0
LINE
8
Undeflected
10
-1249.12
20
-47.8492
11
-1249.12
21
-48.9492
62
2
0
LINE
8
Undeflected
10
-1248.92
20
-49.1491
11
-1249.12
21
-48.9492
62
3
0
LINE
8
Undeflected
10
-1232.9
20
-49.1491
11
-1248.92
21
-49.1491
62
4
0
LINE
8
Undeflected
10
-1232.9
20
-49.1491
11
-1232.76
21
-49.0906
62
5
0
LINE
8
Undeflected
10
-1237.41
20
-38.5768
11
-1237.41
21
-38.4767
62
6
0
LINE
8
Undeflected
10
-1255.38
20
-47.4107
11
-1255.43
21
-47.6035
62
7
0
LINE
8
Undeflected
10
-1257.13
20
-47.1498
11
-1257.08
21
-46.9622
62
8
0
LINE
8
Undeflected
10
-1257.13
20
-47.1498
11
-1255.43
21
-47.6038
62
9
0
LINE
8
Undeflected
10
-1255.43
20
-47.6038
11
-1255.47
21
-47.6426
62
10
0
LINE
8
Undeflected
10
-1257.17
20
-47.1887
11
-1257.13
21
-47.1498
62
1
0
LINE
8
Undeflected
10
-1249.28
20
-47.4107
11
-1249.28
21
-47.6102
62
2
0
LINE
8
Undeflected
10
-1255.38
20
-47.6106
11
-1255.38
21
-47.4179
62
3
0
LINE
8
Undeflected
10
-1249.28
20
-47.6106
11
-1255.38
21
-47.6106
62
4
0
LINE
8
Undeflected
10
-1249.08
20
-48.9107
11
-1248.89
21
-48.9107
62
5
0
LINE
8
Undeflected
10
-1249.08
20
-47.8105
11
-1248.88
21
-47.8105
62
6
0
LINE
8
Undeflected
10
-1249.08
20
-48.9107
11
-1249.08
21
-47.8105
62
7
0
LINE
8
Undeflected
10
-1249.12
20
-48.9492
11
-1249.08
21
-48.9107
62
8
0
LINE
8
Undeflected
10
-1248.92
20
-49.1491
11
-1248.88
21
-49.1106
62
9
0
LINE
8
Undeflected
10
-1248.88
20
-49.1106
11
-1249.01
21
-49.0634
62
10
0
LINE
8
Undeflected
10
-1249.02
20
-49.052
11
-1249.08
21
-48.9276
62
1
0
LINE
8
Undeflected
10
-1248.88
20
-48.9107
11
-1248.88
21
-49.1102
62
2
0
LINE
8
Undeflected
10
-1232.92
20
-49.1106
11
-1232.92
21
-48.9081
62
3
0
LINE
8
Undeflected
10
-1232.92
20
-49.1106
11
-1248.88
21
-49.1106
62
4
0
LINE
8
Undeflected
10
-1232.92
20
-49.1106
11
-1232.9
21
-49.1491
62
5
0
LINE
8
Undeflected
10
-1232.78
20
-49.052
11
-1232.9
21
-49.1099
62
6
0
LINE
8
Undeflected
10
-1249.85
20
-47.9483
11
-1249.85
21
-47.6493
62
7
0
LINE
8
Undeflected
10
-1254.4
20
-47.6493
11
-1254.4
21
-47.9085
62
8
0
LINE
8
Undeflected
10
-1249.65
20
-48.8597
11
-1249.65
21
-48.8537
62
9
0
LINE
8
Undeflected
10
-1249.65
20
-48.6309
11
-1249.65
21
-48.5716
62
10
0
LINE
8
Undeflected
10
-1249.85
20
-49.0597
11
-1249.65
21
-48.8938
62
1
0
LINE
8
Undeflected
10
-1249.65
20
-48.8597
11
-1249.65
21
-48.8597
62
2
0
LINE
8
Undeflected
10
-1254.6
20
-47.9068
11
-1254.6
21
-47.6493
62
3
0
LINE
8
Undeflected
10
-1257.28
20
-47.3215
11
-1256.69
21
-47.3163
62
4
0
LINE
8
Undeflected
10
-1254.5
20
-47.9077
11
-1254.5
21
-47.6493
62
5
0
LINE
8
Undeflected
10
-1257.28
20
-47.1921
11
-1257.16
21
-47.1911
62
6
0
LINE
8
Undeflected
10
-1257.28
20
44.9784
11
-1257.28
21
44.9609
62
7
0
LINE
8
Undeflected
10
-1257.28
20
45.6852
11
-1257.28
21
44.9784
62
8
0
LINE
8
Undeflected
10
-1257.48
20
45.6852
11
-1257.28
21
45.6852
62
9
0
LINE
8
Undeflected
10
-1257.28
20
26.5828
11
-1257.46
21
26.5828
62
10
0
LINE
8
Undeflected
10
-1257.28
20
44.9567
11
-1257.28
21
26.5828
62
1
0
LINE
8
Undeflected
10
-1257.08
20
44.9567
11
-1257.08
21
20.2345
62
2
0
LINE
8
Undeflected
10
-1257.28
20
44.9567
11
-1257.09
21
44.9567
62
3
0
LINE
8
Undeflected
10
-1257.28
20
20.1418
11
-1257.28
21
26.5828
62
4
0
LINE
8
Undeflected
10
-1235.75
20
35
11
-1235.75
21
36.2684
62
5
0
LINE
8
Undeflected
10
-1236.66
20
36.2684
11
-1235.75
21
36.2684
62
6
0
LINE
8
Undeflected
10
-1237.74
20
36.6547
11
-1237.39
21
36.4682
62
7
0
LINE
8
Undeflected
10
-1237.39
20
36.4682
11
-1237.06
21
36.3367
62
8
0
LINE
8
Undeflected
10
-1237.06
20
36.3367
11
-1236.66
21
36.2684
62
9
0
LINE
8
Undeflected
10
-1237.74
20
43.3452
11
-1237.74
21
36.6547
62
10
0
LINE
8
Undeflected
10
-1237.74
20
43.3452
11
-1229.86
21
43.3452
62
1
0
LINE
8
Undeflected
10
-1229.86
20
43.3452
11
-1229.86
21
43.8506
62
2
0
LINE
8
Undeflected
10
-1232.92
20
46.9107
11
-1229.86
21
43.8506
62
3
0
LINE
8
Undeflected
10
-1248.88
20
46.9098
11
-1232.92
21
46.9107
62
4
0
LINE
8
Undeflected
10
-1248.88
20
45.8105
11
-1248.88
21
46.9098
62
5
0
LINE
8
Undeflected
10
-1249.28
20
45.4107
11
-1248.96
21
45.5758
62
6
0
LINE
8
Undeflected
10
-1248.96
20
45.5758
11
-1248.88
21
45.8105
62
7
0
LINE
8
Undeflected
10
-1255.38
20
45.4107
11
-1249.28
21
45.4107
62
8
0
LINE
8
Undeflected
10
-1257.08
20
44.9567
11
-1255.38
21
45.4107
62
9
0
LINE
8
Undeflected
10
-1256.02
20
22
11
-1256.06
21
21.6027
62
10
0
LINE
8
Undeflected
10
-1256.06
20
21.6027
11
-1256.18
21
21.2212
62
1
0
LINE
8
Undeflected
10
-1256.18
20
21.2212
11
-1256.37
21
20.8707
62
2
0
LINE
8
Undeflected
10
-1256.37
20
20.8707
11
-1256.63
21
20.5653
62
3
0
LINE
8
Undeflected
10
-1256.63
20
20.5653
11
-1256.94
21
20.3171
62
4
0
LINE
8
Undeflected
10
-1235.75
20
35
11
-1254.02
21
35
62
5
0
LINE
8
Undeflected
10
-1229.67
20
43.1572
11
-1229.86
21
43.3452
62
6
0
LINE
8
Undeflected
10
-1229.66
20
43.1349
11
-1229.67
21
43.1572
62
7
0
LINE
8
Undeflected
10
-1229.66
20
43.8506
11
-1229.66
21
43.1349
62
8
0
LINE
8
Undeflected
10
-1229.86
20
43.8506
11
-1229.66
21
43.8506
62
9
0
LINE
8
Undeflected
10
-1235.12
20
42.6207
11
-1235.44
21
42.679
62
10
0
LINE
8
Undeflected
10
-1235.44
20
42.679
11
-1235.58
21
42.7198
62
1
0
LINE
8
Undeflected
10
-1235.62
20
42.7352
11
-1236.78
21
43.1572
62
2
0
LINE
8
Undeflected
10
-1229.67
20
43.1572
11
-1236.78
21
43.1572
62
3
0
LINE
8
Undeflected
10
-1229.66
20
43.1349
11
-1229.62
21
42.7251
62
4
0
LINE
8
Undeflected
10
-1229.62
20
42.7251
11
-1229.62
21
42.7047
62
5
0
LINE
8
Undeflected
10
-1229.62
20
42.7047
11
-1230.77
21
42.7047
62
6
0
LINE
8
Undeflected
10
-1230.77
20
42.7047
11
-1231.11
21
42.6886
62
7
0
LINE
8
Undeflected
10
-1231.11
20
42.6886
11
-1231.36
21
42.6592
62
8
0
LINE
8
Undeflected
10
-1231.36
20
42.6592
11
-1231.62
21
42.6137
62
9
0
LINE
8
Undeflected
10
-1231.62
20
42.6137
11
-1231.62
21
42.5956
62
10
0
LINE
8
Undeflected
10
-1235.74
20
42.6252
11
-1235.78
21
42.6255
62
1
0
LINE
8
Undeflected
10
-1235.8
20
42.5714
11
-1235.79
21
42.6255
62
2
0
LINE
8
Undeflected
10
-1236.68
20
42.8919
11
-1235.8
21
42.5714
62
3
0
LINE
8
Undeflected
10
-1236.68
20
42.8919
11
-1236.77
21
43.1223
62
4
0
LINE
8
Undeflected
10
-1236.77
20
43.1223
11
-1236.78
21
43.1572
62
5
0
LINE
8
Undeflected
10
-1235.62
20
42.7352
11
-1235.73
21
42.6327
62
6
0
LINE
8
Undeflected
10
-1235.79
20
42.6255
11
-1229.52
21
42.5805
62
7
0
LINE
8
Undeflected
10
-1235.8
20
42.5714
11
-1235.77
21
36.7038
62
8
0
LINE
8
Undeflected
10
-1235.52
20
36.509
11
-1235.77
21
36.7038
62
9
0
LINE
8
Undeflected
10
-1235.27
20
36.3274
11
-1235.52
21
36.509
62
10
0
LINE
8
Undeflected
10
-1235.27
20
35
11
-1235.27
21
36.3274
62
1
0
LINE
8
Undeflected
10
-1235.77
20
36.7038
11
-1236.68
21
36.6721
62
2
0
LINE
8
Undeflected
10
-1236.68
20
42.8919
11
-1236.68
21
36.6721
62
3
0
LINE
8
Undeflected
10
-1235.52
20
36.509
11
-1235.59
21
36.5066
62
4
0
LINE
8
Undeflected
10
-1235.59
20
36.5066
11
-1235.68
21
36.5023
62
5
0
LINE
8
Undeflected
10
-1235.68
20
36.5023
11
-1236.54
21
36.4722
62
6
0
LINE
8
Undeflected
10
-1236.68
20
36.6721
11
-1236.55
21
36.4727
62
7
0
LINE
8
Undeflected
10
-1236.66
20
36.4683
11
-1237.05
21
36.5057
62
8
0
LINE
8
Undeflected
10
-1237.05
20
36.5057
11
-1237.38
21
36.572
62
9
0
LINE
8
Undeflected
10
-1237.38
20
36.572
11
-1237.74
21
36.6547
62
10
0
LINE
8
Undeflected
10
-1236.68
20
36.6721
11
-1236.96
21
36.6635
62
1
0
LINE
8
Undeflected
10
-1236.96
20
36.6635
11
-1237.28
21
36.6576
62
2
0
LINE
8
Undeflected
10
-1237.28
20
36.6576
11
-1237.62
21
36.6549
62
3
0
LINE
8
Undeflected
10
-1237.62
20
36.6549
11
-1237.74
21
36.6547
62
4
0
LINE
8
Undeflected
10
-1236.54
20
36.4722
11
-1236.66
21
36.4683
62
5
0
LINE
8
Undeflected
10
-1237.74
20
43.3452
11
-1237.4
21
43.1854
62
6
0
LINE
8
Undeflected
10
-1237.4
20
43.1854
11
-1237.07
21
43.0262
62
7
0
LINE
8
Undeflected
10
-1237.07
20
43.0262
11
-1236.77
21
42.9111
62
8
0
LINE
8
Undeflected
10
-1236.77
20
42.9111
11
-1236.68
21
42.8919
62
9
0
LINE
8
Undeflected
10
-1236.78
20
43.1572
11
-1237.16
21
43.2186
62
10
0
LINE
8
Undeflected
10
-1237.16
20
43.2186
11
-1237.55
21
43.302
62
1
0
LINE
8
Undeflected
10
-1237.55
20
43.302
11
-1237.74
21
43.3452
62
2
0
LINE
8
Undeflected
10
-1235.55
20
36.2684
11
-1235.55
21
35
62
3
0
LINE
8
Undeflected
10
-1235.75
20
36.2684
11
-1235.55
21
36.2684
62
4
0
LINE
8
Undeflected
10
-1249.85
20
46.1483
11
-1249.85
21
45.9488
62
5
0
LINE
8
Undeflected
10
-1257.08
20
45.8851
11
-1257.08
21
46.0851
62
6
0
LINE
8
Undeflected
10
-1249.85
20
45.9483
11
-1257.08
21
45.8851
62
7
0
LINE
8
Undeflected
10
-1249.85
20
46.9544
11
-1249.85
21
46.9914
62
8
0
LINE
8
Undeflected
10
-1249.85
20
46.5597
11
-1249.85
21
46.8924
62
9
0
LINE
8
Undeflected
10
-1249.85
20
46.8924
11
-1249.85
21
46.9249
62
10
0
LINE
8
Undeflected
10
-1249.65
20
46.5597
11
-1249.84
21
46.5597
62
1
0
LINE
8
Undeflected
10
-1249.65
20
46.8597
11
-1249.84
21
47.0592
62
2
0
LINE
8
Undeflected
10
-1249.65
20
46.8597
11
-1249.65
21
46.6684
62
3
0
LINE
8
Undeflected
10
-1249.65
20
46.6684
11
-1249.65
21
46.5809
62
4
0
LINE
8
Undeflected
10
-1249.65
20
46.5597
11
-1249.65
21
46.8596
62
5
0
LINE
8
Undeflected
10
-1249.65
20
46.8596
11
-1249.81
21
47.0557
62
6
0
LINE
8
Undeflected
10
-1249.65
20
45.6495
11
-1249.65
21
45.75
62
7
0
LINE
8
Undeflected
10
-1249.65
20
45.75
11
-1249.65
21
46.0647
62
8
0
LINE
8
Undeflected
10
-1249.65
20
46.0647
11
-1249.65
21
46.1483
62
9
0
LINE
8
Undeflected
10
-1249.65
20
46.1483
11
-1249.65
21
46.7597
62
10
0
LINE
8
Undeflected
10
-1249.65
20
46.7597
11
-1249.65
21
46.8597
62
1
0
LINE
8
Undeflected
10
-1249.65
20
46.8597
11
-1249.65
21
46.8597
62
2
0
LINE
8
Undeflected
10
-1249.65
20
46.5597
11
-1249.65
21
45.6495
62
3
0
LINE
8
Undeflected
10
-1249.85
20
46.5597
11
-1249.85
21
46.1481
62
4
0
LINE
8
Undeflected
10
-1249.85
20
45.9483
11
-1249.85
21
45.6495
62
5
0
LINE
8
Undeflected
10
-1254.4
20
45.9085
11
-1254.4
21
45.6495
62
6
0
LINE
8
Undeflected
10
-1259
20
46.8701
11
-1259
21
47.1269
62
7
0
LINE
8
Undeflected
10
-1259
20
47.1269
11
-1259
21
47.1395
62
8
0
LINE
8
Undeflected
10
-1249.85
20
47.0597
11
-1249.85
21
46.8524
62
9
0
LINE
8
Undeflected
10
-1249.85
20
46.8524
11
-1249.85
21
46.7597
62
10
0
LINE
8
Undeflected
10
-1255.43
20
45.6038
11
-1255.38
21
45.4161
62
1
0
LINE
8
Undeflected
10
-1255.43
20
45.6038
11
-1257.13
21
45.1498
62
2
0
LINE
8
Undeflected
10
-1257.08
20
44.9567
11
-1257.13
21
45.1495
62
3
0
LINE
8
Undeflected
10
-1257.13
20
45.1498
11
-1257.17
21
45.1889
62
4
0
LINE
8
Undeflected
10
-1257.17
20
45.1889
11
-1255.47
21
45.6428
62
5
0
LINE
8
Undeflected
10
-1255.47
20
45.6428
11
-1255.43
21
45.6038
62
6
0
LINE
8
Undeflected
10
-1229.81
20
44.1442
11
-1232.76
21
47.0907
62
7
0
LINE
8
Undeflected
10
-1232.76
20
47.0907
11
-1232.9
21
47.1492
62
8
0
LINE
8
Undeflected
10
-1232.9
20
47.1492
11
-1248.92
21
47.1493
62
9
0
LINE
8
Undeflected
10
-1249.12
20
46.9494
11
-1248.92
21
47.1493
62
10
0
LINE
8
Undeflected
10
-1249.12
20
46.9494
11
-1249.12
21
45.8494
62
1
0
LINE
8
Undeflected
10
-1249.12
20
45.8494
11
-1249.32
21
45.6495
62
2
0
LINE
8
Undeflected
10
-1249.32
20
45.6495
11
-1255.42
21
45.6495
62
3
0
LINE
8
Undeflected
10
-1255.42
20
45.6495
11
-1255.47
21
45.6428
62
4
0
LINE
8
Undeflected
10
-1257.17
20
45.1889
11
-1257.28
21
45.1174
62
5
0
LINE
8
Undeflected
10
-1237.47
20
36.5077
11
-1237.47
21
36.5918
62
6
0
LINE
8
Undeflected
10
-1249.28
20
45.6106
11
-1249.28
21
45.4179
62
7
0
LINE
8
Undeflected
10
-1255.38
20
45.6106
11
-1249.28
21
45.6106
62
8
0
LINE
8
Undeflected
10
-1255.38
20
45.4107
11
-1255.38
21
45.6102
62
9
0
LINE
8
Undeflected
10
-1248.88
20
46.9107
11
-1249.08
21
46.9107
62
10
0
LINE
8
Undeflected
10
-1249.08
20
45.8105
11
-1249.08
21
46.9107
62
1
0
LINE
8
Undeflected
10
-1248.88
20
45.8105
11
-1249.08
21
45.8105
62
2
0
LINE
8
Undeflected
10
-1248.88
20
47.1106
11
-1248.92
21
47.1493
62
3
0
LINE
8
Undeflected
10
-1249.08
20
46.9107
11
-1249.12
21
46.9494
62
4
0
LINE
8
Undeflected
10
-1249.08
20
46.9107
11
-1249.03
21
47.0395
62
5
0
LINE
8
Undeflected
10
-1249.02
20
47.052
11
-1248.9
21
47.1098
62
6
0
LINE
8
Undeflected
10
-1248.88
20
47.1106
11
-1248.88
21
46.9179
62
7
0
LINE
8
Undeflected
10
-1232.92
20
47.1106
11
-1232.92
21
46.9179
62
8
0
LINE
8
Undeflected
10
-1248.88
20
47.1106
11
-1232.92
21
47.1106
62
9
0
LINE
8
Undeflected
10
-1232.9
20
47.1492
11
-1232.92
21
47.1106
62
10
0
LINE
8
Undeflected
10
-1229.72
20
43.9919
11
-1229.85
21
43.8557
62
1
0
LINE
8
Undeflected
10
-1232.78
20
47.052
11
-1229.72
21
43.9919
62
2
0
LINE
8
Undeflected
10
-1232.92
20
46.9107
11
-1232.78
21
47.0518
62
3
0
LINE
8
Undeflected
10
-1232.78
20
47.052
11
-1232.76
21
47.0907
62
4
0
LINE
8
Undeflected
10
-1229.81
20
44.1442
11
-1229.68
21
44.0086
62
5
0
LINE
8
Undeflected
10
-1229.68
20
44.0086
11
-1229.72
21
43.9919
62
6
0
LINE
8
Undeflected
10
-1257.08
20
-48.0851
11
-1257.08
21
-47.8856
62
7
0
LINE
8
Undeflected
10
-1249.85
20
-47.9483
11
-1249.85
21
-48.1341
62
8
0
LINE
8
Undeflected
10
-1257.08
20
-47.8851
11
-1249.85
21
-47.9483
62
9
0
LINE
8
Undeflected
10
-1259
20
-49.1395
11
-1259
21
-48.9535
62
10
0
LINE
8
Undeflected
10
-1259
20
-48.9535
11
-1259
21
-48.8701
62
1
0
LINE
8
Undeflected
10
-1249.85
20
-48.7597
11
-1249.85
21
-49.045
62
2
0
LINE
8
Undeflected
10
-1249.85
20
-49.045
11
-1249.85
21
-49.0597
62
3
0
LINE
8
Undeflected
10
-1259.11
20
-49.169
11
-1259
21
-49.1709
62
4
0
LINE
8
Undeflected
10
-1259
20
-49.1709
11
-1259.39
21
-49.1641
62
5
0
LINE
8
Undeflected
10
-1259.39
20
-49.1641
11
-1259
21
-49.1709
62
6
0
LINE
8
Undeflected
10
-1259
20
-49.1709
11
-1259.11
21
-49.169
62
7
0
LINE
8
Undeflected
10
-1259.11
20
-49.169
11
-1259.46
21
-49.1628
62
8
0
LINE
8
Undeflected
10
-1259.46
20
-49.1628
11
-1259.69
21
-49.159
62
9
0
LINE
8
Undeflected
10
-1260.51
20
-48.8495
11
-1260.6
21
-48.8482
62
10
0
LINE
8
Undeflected
10
-1259.81
20
-23.7057
11
-1260.18
21
-23.7018
62
1
0
LINE
8
Undeflected
10
-1260.18
20
-23.7018
11
-1260.45
21
-23.699
62
2
0
LINE
8
Undeflected
10
-1260.45
20
-23.699
11
-1260.59
21
-23.6975
62
3
0
LINE
8
Undeflected
10
-1278.52
20
3.02358
11
-1278.32
21
3.02358
62
4
0
LINE
8
Undeflected
10
-1278.32
20
1.97642
11
-1278.52
21
1.97643
62
5
0
LINE
8
Undeflected
10
-1278.32
20
3.02358
11
-1278.32
21
1.97642
62
6
0
LINE
8
Undeflected
10
-1277.05
20
-0.273684
11
-1277.05
21
-0.466386
62
7
0
LINE
8
Undeflected
10
-1277.05
20
-0.273684
11
-1277.37
21
-0.236737
62
8
0
LINE
8
Undeflected
10
-1277.37
20
-0.236737
11
-1277.67
21
-0.113187
62
9
0
LINE
8
Undeflected
10
-1277.67
20
-0.113187
11
-1277.87
21
0.209651
62
10
0
LINE
8
Undeflected
10
-1278.01
20
0.209651
11
-1277.88
21
0.209651
62
1
0
LINE
8
Undeflected
10
-1277.87
20
0.209651
11
-1277.26
21
0.230769
62
2
0
LINE
8
Undeflected
10
-1276.91
20
-0.268926
11
-1277.14
21
-0.143438
62
3
0
LINE
8
Undeflected
10
-1277.14
20
-0.143438
11
-1277.26
21
0.158046
62
4
0
LINE
8
Undeflected
10
-1277.26
20
0.158046
11
-1277.26
21
0.20778
62
5
0
LINE
8
Undeflected
10
-1277.05
20
-0.273684
11
-1276.91
21
-0.268926
62
6
0
LINE
8
Undeflected
10
-1275.48
20
-0.273924
11
-1275.5
21
-0.247257
62
7
0
LINE
8
Undeflected
10
-1275.48
20
-0.273924
11
-1277.05
21
-0.273684
62
8
0
LINE
8
Undeflected
10
-1276.91
20
-0.268926
11
-1276.73
21
-0.257884
62
9
0
LINE
8
Undeflected
10
-1276.73
20
-0.257884
11
-1276.7
21
-0.252418
62
10
0
LINE
8
Undeflected
10
-1276.7
20
-0.252418
11
-1276.7
21
-0.247075
62
1
0
LINE
8
Undeflected
10
-1276.7
20
-0.247075
11
-1275.5
21
-0.247257
62
2
0
LINE
8
Undeflected
10
-1277.2
20
0.247277
11
-1277.08
21
-0.0746361
62
3
0
LINE
8
Undeflected
10
-1277.08
20
-0.0746361
11
-1276.79
21
-0.245148
62
4
0
LINE
8
Undeflected
10
-1276.79
20
-0.245148
11
-1276.74
21
-0.251167
62
5
0
LINE
8
Undeflected
10
-1277.2
20
0.247277
11
-1277.2
21
0.251091
62
6
0
LINE
8
Undeflected
10
-1277.2
20
0.251091
11
-1277.05
21
-0.102276
62
7
0
LINE
8
Undeflected
10
-1277.05
20
-0.102276
11
-1276.7
21
-0.247075
62
8
0
LINE
8
Undeflected
10
-1277.2
20
1.54998
11
-1277.2
21
1.5
62
9
0
LINE
8
Undeflected
10
-1277.2
20
1.5
11
-1277.2
21
0.3
62
10
0
LINE
8
Undeflected
10
-1277.2
20
0.3
11
-1277.2
21
0.273983
62
1
0
LINE
8
Undeflected
10
-1277.2
20
0.273983
11
-1277.2
21
0.251091
62
2
0
LINE
8
Undeflected
10
-1277.2
20
0.247277
11
-1277.2
21
1.5977
62
3
0
LINE
8
Undeflected
10
-1277.2
20
1.5977
11
-1277.2
21
1.60355
62
4
0
LINE
8
Undeflected
10
-1277.2
20
1.60355
11
-1277.2
21
1.54998
62
5
0
LINE
8
Undeflected
10
-1274.98
20
0.225665
11
-1275
21
0.252362
62
6
0
LINE
8
Undeflected
10
-1274.98
20
0.225665
11
-1275.12
21
-0.127796
62
7
0
LINE
8
Undeflected
10
-1275.12
20
-0.127796
11
-1275.48
21
-0.273924
62
8
0
LINE
8
Undeflected
10
-1275.5
20
-0.247257
11
-1275.15
21
-0.100974
62
9
0
LINE
8
Undeflected
10
-1275.15
20
-0.100974
11
-1275
21
0.252362
62
10
0
LINE
8
Undeflected
10
-1274.98
20
4.77433
11
-1275
21
4.74764
62
1
0
LINE
8
Undeflected
10
-1274.98
20
4.77433
11
-1274.98
21
0.225665
62
2
0
LINE
8
Undeflected
10
-1275
20
0.252362
11
-1275
21
4.74764
62
3
0
LINE
8
Undeflected
10
-1275.48
20
5.27392
11
-1275.5
21
5.24726
62
4
0
LINE
8
Undeflected
10
-1275.48
20
5.27392
11
-1275.12
21
5.1278
62
5
0
LINE
8
Undeflected
10
-1275.12
20
5.1278
11
-1274.98
21
4.77433
62
6
0
LINE
8
Undeflected
10
-1275
20
4.74764
11
-1275.15
21
5.10098
62
7
0
LINE
8
Undeflected
10
-1275.15
20
5.10098
11
-1275.5
21
5.24726
62
8
0
LINE
8
Undeflected
10
-1275.5
20
5.24726
11
-1276.7
21
5.24708
62
9
0
LINE
8
Undeflected
10
-1276.7
20
5.25242
11
-1276.7
21
5.24708
62
10
0
LINE
8
Undeflected
10
-1276.91
20
5.26893
11
-1276.73
21
5.25789
62
1
0
LINE
8
Undeflected
10
-1276.73
20
5.25789
11
-1276.7
21
5.25242
62
2
0
LINE
8
Undeflected
10
-1276.91
20
5.26893
11
-1277.05
21
5.27368
62
3
0
LINE
8
Undeflected
10
-1277.05
20
5.27368
11
-1275.48
21
5.27392
62
4
0
LINE
8
Undeflected
10
-1277.2
20
4.75272
11
-1277.2
21
4.74891
62
5
0
LINE
8
Undeflected
10
-1276.7
20
5.25242
11
-1277.02
21
5.13452
62
6
0
LINE
8
Undeflected
10
-1277.02
20
5.13452
11
-1277.2
21
4.83705
62
7
0
LINE
8
Undeflected
10
-1277.2
20
4.83705
11
-1277.2
21
4.78746
62
8
0
LINE
8
Undeflected
10
-1276.7
20
5.24708
11
-1277.05
21
5.10149
62
9
0
LINE
8
Undeflected
10
-1277.05
20
5.10149
11
-1277.2
21
4.74891
62
10
0
LINE
8
Undeflected
10
-1277.2
20
4.74891
11
-1277.2
21
4.7
62
1
0
LINE
8
Undeflected
10
-1277.2
20
4.7
11
-1277.2
21
3.5
62
2
0
LINE
8
Undeflected
10
-1277.2
20
3.5
11
-1277.2
21
3.47613
62
3
0
LINE
8
Undeflected
10
-1277.2
20
3.47613
11
-1277.2
21
3.44972
62
4
0
LINE
8
Undeflected
10
-1277.2
20
3.44972
11
-1277.2
21
3.39645
62
5
0
LINE
8
Undeflected
10
-1277.2
20
3.39645
11
-1277.2
21
3.4023
62
6
0
LINE
8
Undeflected
10
-1277.2
20
3.4023
11
-1277.2
21
4.75272
62
7
0
LINE
8
Undeflected
10
-1277.26
20
0.230769
11
-1277.2
21
0.247277
62
8
0
LINE
8
Undeflected
10
-1277.87
20
1.57658
11
-1277.26
21
1.5977
62
9
0
LINE
8
Undeflected
10
-1277.26
20
1.5977
11
-1277.26
21
0.230769
62
10
0
LINE
8
Undeflected
10
-1277.87
20
0.209651
11
-1277.87
21
1.57658
62
1
0
LINE
8
Undeflected
10
-1277.87
20
1.57658
11
-1278.01
21
1.77602
62
2
0
LINE
8
Undeflected
10
-1277.4
20
1.79758
11
-1277.26
21
1.6069
62
3
0
LINE
8
Undeflected
10
-1278.01
20
1.77646
11
-1277.4
21
1.79758
62
4
0
LINE
8
Undeflected
10
-1275.48
20
-0.473798
11
-1275.48
21
-0.274303
62
5
0
LINE
8
Undeflected
10
-1274.98
20
0.225665
11
-1274.78
21
0.225665
62
6
0
LINE
8
Undeflected
10
-1274.78
20
4.77433
11
-1274.98
21
4.77433
62
7
0
LINE
8
Undeflected
10
-1275.48
20
5.27392
11
-1275.48
21
5.46662
62
8
0
LINE
8
Undeflected
10
-1277.05
20
5.27368
11
-1277.05
21
5.46639
62
9
0
LINE
8
Undeflected
10
-1277.87
20
4.79035
11
-1277.68
21
5.10727
62
10
0
LINE
8
Undeflected
10
-1277.68
20
5.10727
11
-1277.35
21
5.2416
62
1
0
LINE
8
Undeflected
10
-1277.35
20
5.2416
11
-1277.05
21
5.27368
62
2
0
LINE
8
Undeflected
10
-1277.26
20
4.76923
11
-1277.17
21
5.09124
62
3
0
LINE
8
Undeflected
10
-1277.17
20
5.09124
11
-1276.96
21
5.26181
62
4
0
LINE
8
Undeflected
10
-1276.96
20
5.26181
11
-1276.93
21
5.26783
62
5
0
LINE
8
Undeflected
10
-1277.87
20
4.79035
11
-1277.26
21
4.76923
62
6
0
LINE
8
Undeflected
10
-1277.2
20
4.75272
11
-1277.25
21
4.76788
62
7
0
LINE
8
Undeflected
10
-1277.26
20
3.4023
11
-1277.87
21
3.42342
62
8
0
LINE
8
Undeflected
10
-1277.87
20
3.42342
11
-1277.87
21
4.79035
62
9
0
LINE
8
Undeflected
10
-1277.26
20
4.76923
11
-1277.26
21
3.4023
62
10
0
LINE
8
Undeflected
10
-1249.65
20
46.5597
11
-1249.65
21
46.6193
62
1
0
LINE
8
Undeflected
10
-1249.65
20
46.8512
11
-1249.65
21
46.8594
62
2
0
LINE
8
Undeflected
10
-1249.85
20
47.0597
11
-1249.65
21
46.8597
62
3
0
LINE
8
Undeflected
10
-1249.65
20
46.2998
11
-1249.65
21
46.5597
62
4
0
LINE
8
Undeflected
10
-1249.65
20
46.8597
11
-1249.65
21
46.8597
62
5
0
LINE
8
Undeflected
10
-1249.65
20
46.8597
11
-1249.65
21
46.8547
62
6
0
LINE
8
Undeflected
10
-1254.4
20
45.6495
11
-1254.4
21
45.9085
62
7
0
LINE
8
Undeflected
10
-1229.68
20
44.0086
11
-1229.73
21
44.0632
62
8
0
LINE
8
Undeflected
10
-1229.78
20
44.1062
11
-1229.8
21
44.1339
62
9
0
LINE
8
Undeflected
10
-1231.04
20
45.365
11
-1229.81
21
44.1441
62
10
0
LINE
8
Undeflected
10
-1232.9
20
47.1492
11
-1232.76
21
47.0907
62
1
0
LINE
8
Undeflected
10
-1229.66
20
43.8506
11
-1229.71
21
43.9794
62
2
0
LINE
8
Undeflected
10
-1229.66
20
43.1349
11
-1229.66
21
43.8506
62
3
0
LINE
8
Undeflected
10
-1231.62
20
42.5956
11
-1231.62
21
42.6137
62
4
0
LINE
8
Undeflected
10
-1231.62
20
42.6138
11
-1231.6
21
42.6189
62
5
0
LINE
8
Undeflected
10
-1229.82
20
42.7047
11
-1229.62
21
42.7047
62
6
0
LINE
8
Undeflected
10
-1229.62
20
42.7251
11
-1229.66
21
43.1349
62
7
0
LINE
8
Undeflected
10
-1235.52
20
36.509
11
-1235.43
21
36.4949
62
8
0
LINE
8
Undeflected
10
-1235.38
20
36.4748
11
-1235.35
21
36.4571
62
9
0
LINE
8
Undeflected
10
-1235.3
20
36.4096
11
-1235.29
21
36.3857
62
10
0
LINE
8
Undeflected
10
-1235.71
20
36.5817
11
-1235.77
21
36.6816
62
1
0
LINE
8
Undeflected
10
-1235.59
20
36.5066
11
-1235.52
21
36.509
62
2
0
LINE
8
Undeflected
10
-1237.47
20
36.5917
11
-1237.13
21
36.5196
62
3
0
LINE
8
Undeflected
10
-1237.13
20
36.5196
11
-1236.82
21
36.4753
62
4
0
LINE
8
Undeflected
10
-1236.82
20
36.4753
11
-1236.73
21
36.4692
62
5
0
LINE
8
Undeflected
10
-1257.28
20
-22.1417
11
-1257.28
21
-28.5828
62
6
0
LINE
8
Undeflected
10
-1237.26
20
-38.4118
11
-1237.05
21
-38.3325
62
7
0
LINE
8
Undeflected
10
-1235.55
20
-38.269
11
-1235.55
21
-37
62
8
0
LINE
8
Undeflected
10
-1235.75
20
-38.2684
11
-1235.66
21
-38.2685
62
9
0
LINE
8
Undeflected
10
-1235.58
20
-38.2684
11
-1235.55
21
-38.269
62
10
0
LINE
8
Undeflected
10
-1236.97
20
-38.4929
11
-1237.18
21
-38.5294
62
1
0
LINE
8
Undeflected
10
-1236.59
20
-38.4706
11
-1236.65
21
-38.4687
62
2
0
LINE
8
Undeflected
10
-1229.66
20
-45.8504
11
-1229.66
21
-45.1349
62
3
0
LINE
8
Undeflected
10
-1254.4
20
-47.6493
11
-1254.5
21
-47.6493
62
4
0
LINE
8
Undeflected
10
-1234.7
20
-44.5955
11
-1235.1
21
-44.6184
62
5
0
LINE
8
Undeflected
10
-1235.1
20
-44.6184
11
-1235.47
21
-44.6858
62
6
0
LINE
8
Undeflected
10
-1235.47
20
-44.6858
11
-1235.62
21
-44.7352
62
7
0
LINE
8
Undeflected
10
-1235.76
20
-38.7043
11
-1235.52
21
-38.5091
62
8
0
LINE
8
Undeflected
10
-1235.52
20
-38.5091
11
-1235.59
21
-38.5066
62
9
0
LINE
8
Undeflected
10
-1259.11
20
47.169
11
-1259.11
21
46.9777
62
10
0
LINE
8
Undeflected
10
-1259.11
20
46.9777
11
-1259.11
21
46.8903
62
1
0
LINE
8
Undeflected
10
-1283.16
20
-13.0321
11
-1283.23
21
-13.0265
62
2
0
LINE
8
Undeflected
10
-1283.23
20
-13.0265
11
-1283.17
21
-13.0314
62
3
0
LINE
8
Undeflected
10
-1283.23
20
-13.0265
11
-1283.49
21
-12.8116
62
4
0
LINE
8
Undeflected
10
-1283.49
20
-12.8116
11
-1283.5
21
-12.7527
62
5
0
LINE
8
Undeflected
10
-1283.5
20
-12.7276
11
-1283.43
21
-12.7326
62
6
0
LINE
8
Undeflected
10
-1283.43
20
-12.7326
11
-1283.34
21
-12.7386
62
7
0
LINE
8
Undeflected
10
-1283.5
20
-11.8724
11
-1283.48
21
-11.8711
62
8
0
LINE
8
Undeflected
10
-1283.5
20
-12.7276
11
-1283.5
21
-11.8724
62
9
0
LINE
8
Undeflected
10
-1283.5
20
-11.8724
11
-1283.49
21
-11.7837
62
10
0
LINE
8
Undeflected
10
-1280.1
20
11.1255
11
-1280.29
21
10.8474
62
1
0
LINE
8
Undeflected
10
-1280.29
20
10.8474
11
-1280.37
21
10.8267
62
2
0
LINE
8
Undeflected
10
-1280.37
20
10.8267
11
-1280.76
21
10.7932
62
3
0
LINE
8
Undeflected
10
-1280.76
20
10.7932
11
-1281.11
21
10.7267
62
4
0
LINE
8
Undeflected
10
-1281.11
20
10.7267
11
-1281.25
21
10.6768
62
5
0
LINE
8
Undeflected
10
-1280.39
20
8.29211
11
-1280.1
21
8.28199
62
6
0
LINE
8
Undeflected
10
-1280.66
20
7.2011
11
-1280.66
21
7.20112
62
7
0
LINE
8
Undeflected
10
-1281.63
20
10.4796
11
-1281.67
21
10.4482
62
8
0
LINE
8
Undeflected
10
-1281.74
20
10.3924
11
-1281.76
21
10.379
62
9
0
LINE
8
Undeflected
10
-1281.44
20
10.5924
11
-1281.34
21
10.6415
62
10
0
LINE
8
Undeflected
10
-1280.34
20
8.09032
11
-1280.37
21
7.76712
62
1
0
LINE
8
Undeflected
10
-1281.22
20
7.30947
11
-1281.6
21
7.50544
62
2
0
LINE
8
Undeflected
10
-1282.06
20
7.95085
11
-1282.27
21
8.33032
62
3
0
LINE
8
Undeflected
10
-1282.32
20
8.47027
11
-1282.4
21
8.89654
62
4
0
LINE
8
Undeflected
10
-1282.4
20
8.89654
11
-1282.37
21
9.32883
62
5
0
LINE
8
Undeflected
10
-1282.33
20
9.5026
11
-1282.16
21
9.90076
62
6
0
LINE
8
Undeflected
10
-1282.1
20
9.99349
11
-1281.82
21
10.3229
62
7
0
LINE
8
Undeflected
10
-1281.31
20
10.6528
11
-1281.36
21
10.6294
62
8
0
LINE
8
Undeflected
10
-1281.4
20
10.6101
11
-1281.44
21
10.5924
62
9
0
LINE
8
Undeflected
10
-1281.63
20
10.4796
11
-1281.7
21
10.4212
62
10
0
LINE
8
Undeflected
10
-1281.75
20
10.3871
11
-1281.76
21
10.3793
62
1
0
LINE
8
Undeflected
10
-1280.66
20
7.20112
11
-1280.66
21
7.2011
62
2
0
LINE
8
Undeflected
10
-1280.76
20
10.7931
11
-1281.28
21
10.6654
62
3
0
LINE
8
Undeflected
10
-1281.28
20
10.6654
11
-1281.75
21
10.3869
62
4
0
LINE
8
Undeflected
10
-1281.75
20
10.3869
11
-1282.11
21
9.98296
62
5
0
LINE
8
Undeflected
10
-1282.11
20
9.98296
11
-1282.33
21
9.49008
62
6
0
LINE
8
Undeflected
10
-1282.33
20
9.49008
11
-1282.4
21
8.95286
62
7
0
LINE
8
Undeflected
10
-1282.4
20
8.95286
11
-1282.3
21
8.4199
62
8
0
LINE
8
Undeflected
10
-1282.3
20
8.4199
11
-1282.05
21
7.93944
62
9
0
LINE
8
Undeflected
10
-1282.05
20
7.93944
11
-1281.67
21
7.55494
62
10
0
LINE
8
Undeflected
10
-1281.67
20
7.55494
11
-1281.19
21
7.30117
62
1
0
LINE
8
Undeflected
10
-1281.19
20
7.30117
11
-1280.66
21
7.20112
62
2
0
LINE
8
Undeflected
10
-1280.76
20
10.7932
11
-1280.76
21
10.7293
62
3
0
LINE
8
Undeflected
10
-1280.76
20
10.7293
11
-1280.76
21
10.5497
62
4
0
LINE
8
Undeflected
10
-1280.76
20
10.5497
11
-1280.74
21
10.2827
62
5
0
LINE
8
Undeflected
10
-1280.74
20
10.2827
11
-1280.72
21
10.0502
62
6
0
LINE
8
Undeflected
10
-1280.66
20
8.0007
11
-1280.67
21
7.68935
62
7
0
LINE
8
Undeflected
10
-1280.67
20
7.68935
11
-1280.67
21
7.42714
62
8
0
LINE
8
Undeflected
10
-1280.67
20
7.42714
11
-1280.67
21
7.25546
62
9
0
LINE
8
Undeflected
10
-1280.67
20
7.25546
11
-1280.66
21
7.2031
62
10
0
LINE
8
Undeflected
10
-1280.66
20
8.00069
11
-1281.05
21
8.09278
62
1
0
LINE
8
Undeflected
10
-1281.05
20
8.09278
11
-1281.37
21
8.32809
62
2
0
LINE
8
Undeflected
10
-1281.37
20
8.32809
11
-1281.57
21
8.66949
62
3
0
LINE
8
Undeflected
10
-1281.57
20
8.66949
11
-1281.63
21
9.06307
62
4
0
LINE
8
Undeflected
10
-1281.63
20
9.06307
11
-1281.52
21
9.44668
62
5
0
LINE
8
Undeflected
10
-1281.52
20
9.44668
11
-1281.28
21
9.75978
62
6
0
LINE
8
Undeflected
10
-1281.28
20
9.75978
11
-1280.93
21
9.95292
62
7
0
LINE
8
Undeflected
10
-1280.93
20
9.95292
11
-1280.74
21
9.99409
62
8
0
LINE
8
Undeflected
10
-1280.39
20
10.0247
11
-1280.39
21
7.99107
62
9
0
LINE
8
Undeflected
10
-1280.39
20
7.99107
11
-1280.66
21
8.00064
62
10
0
LINE
8
Undeflected
10
-1280.71
20
9.99619
11
-1280.39
21
10.0247
62
1
0
LINE
8
Undeflected
10
-1280.67
20
7.37244
11
-1280.67
21
7.39234
62
2
0
LINE
8
Undeflected
10
-1281.21
20
7.30564
11
-1281.59
21
7.49918
62
3
0
LINE
8
Undeflected
10
-1281.69
20
7.56425
11
-1282
21
7.86459
62
4
0
LINE
8
Undeflected
10
-1282.06
20
7.95083
11
-1282.27
21
8.33031
62
5
0
LINE
8
Undeflected
10
-1282.31
20
8.43255
11
-1282.39
21
8.85702
62
6
0
LINE
8
Undeflected
10
-1282.39
20
8.85702
11
-1282.38
21
9.28982
62
7
0
LINE
8
Undeflected
10
-1282.33
20
9.50263
11
-1282.16
21
9.90079
62
8
0
LINE
8
Undeflected
10
-1282.1
20
9.99352
11
-1281.82
21
10.3229
62
9
0
LINE
8
Undeflected
10
-1280.37
20
7.39052
11
-1280.37
21
7.76712
62
10
0
LINE
8
Undeflected
10
-1280.37
20
7.76712
11
-1280.34
21
8.09032
62
1
0
LINE
8
Undeflected
10
-1280.34
20
8.09032
11
-1280.39
21
8.0921
62
2
0
LINE
8
Undeflected
10
-1280.67
20
7.40097
11
-1280.37
21
7.39052
62
3
0
LINE
8
Undeflected
10
-1280.76
20
10.7931
11
-1280.37
21
10.8267
62
4
0
LINE
8
Undeflected
10
-1280.37
20
10.8267
11
-1280.37
21
10.7399
62
5
0
LINE
8
Undeflected
10
-1280.37
20
10.7399
11
-1280.38
21
10.4975
62
6
0
LINE
8
Undeflected
10
-1280.38
20
10.4975
11
-1280.39
21
10.151
62
7
0
LINE
8
Undeflected
10
-1280.39
20
10.151
11
-1280.39
21
10.0247
62
8
0
LINE
8
Undeflected
10
-1249.04
20
47.15
11
-1232.9
21
47.15
62
9
0
LINE
8
Undeflected
10
-1232.9
20
47.15
11
-1232.9
21
47.15
62
10
0
LINE
8
Undeflected
10
-1249.04
20
47.15
11
-1232.9
21
47.15
62
1
0
LINE
8
Undeflected
10
-1229.81
20
42.5826
11
-1229.82
21
42.644
62
2
0
LINE
8
Undeflected
10
-1231.58
20
42.6219
11
-1231.54
21
42.6046
62
3
0
LINE
8
Undeflected
10
-1249.22
20
47.05
11
-1249.65
21
46.2998
62
4
0
LINE
8
Undeflected
10
-1249.22
20
47.05
11
-1249.12
21
46.9959
62
5
0
LINE
8
Undeflected
10
-1249.65
20
45.9006
11
-1249.12
21
46.8198
62
6
0
LINE
8
Undeflected
10
-1231.52
20
42.5949
11
-1231.56
21
42.6142
62
7
0
LINE
8
Undeflected
10
-1229.82
20
42.7047
11
-1229.82
21
42.6509
62
8
0
LINE
8
Undeflected
10
-1229.82
20
42.6509
11
-1229.82
21
42.5894
62
9
0
LINE
8
Undeflected
10
-1232.9
20
47.15
11
-1249.04
21
47.15
62
10
0
LINE
8
Undeflected
10
-1249.04
20
47.1055
11
-1249.04
21
47.1494
62
1
0
LINE
8
Undeflected
10
-1229.74
20
44.0749
11
-1229.81
21
44.1442
62
2
0
LINE
8
Undeflected
10
-1231.03
20
45.3649
11
-1232.76
21
47.0914
62
3
0
LINE
8
Undeflected
10
-1229.68
20
44.0078
11
-1229.73
21
43.9543
62
4
0
LINE
8
Undeflected
10
-1249.65
20
46.2998
11
-1249.22
21
47.05
62
5
0
LINE
8
Undeflected
10
-1229.49
20
43.8475
11
-1229.66
21
43.8446
62
6
0
LINE
8
Undeflected
10
-1229.66
20
43.8446
11
-1229.54
21
43.8466
62
7
0
LINE
8
Undeflected
10
-1229.49
20
43.8475
11
-1229.61
21
43.8455
62
8
0
LINE
8
Undeflected
10
-1229.66
20
43.8446
11
-1229.49
21
43.8475
62
9
0
LINE
8
Undeflected
10
-1229.32
20
43.95
11
-1199.09
21
43.95
62
10
0
LINE
8
Undeflected
10
-1229.32
20
43.95
11
-1229.47
21
43.95
62
1
0
LINE
8
Undeflected
10
-1229.47
20
43.95
11
-1229.69
21
43.95
62
2
0
LINE
8
Undeflected
10
-1229.72
20
43.95
11
-1229.76
21
43.95
62
3
0
LINE
8
Undeflected
10
-1229.76
20
43.95
11
-1229.32
21
43.95
62
4
0
LINE
8
Undeflected
10
-1223.36
20
43.95
11
-1222.99
21
43.95
62
5
0
LINE
8
Undeflected
10
-1222.99
20
43.95
11
-1222.79
21
43.95
62
6
0
LINE
8
Undeflected
10
-1220.7
20
43.95
11
-1220.33
21
43.95
62
7
0
LINE
8
Undeflected
10
-1220.33
20
43.95
11
-1220.14
21
43.95
62
8
0
LINE
8
Undeflected
10
-1220.14
20
43.95
11
-1220.33
21
43.95
62
9
0
LINE
8
Undeflected
10
-1220.33
20
43.95
11
-1220.7
21
43.95
62
10
0
LINE
8
Undeflected
10
-1222.79
20
43.95
11
-1223.11
21
43.95
62
1
0
LINE
8
Undeflected
10
-1223.11
20
43.95
11
-1223.36
21
43.95
62
2
0
LINE
8
Undeflected
10
-1229.32
20
43.95
11
-1229.74
21
43.95
62
3
0
LINE
8
Undeflected
10
-1229.74
20
43.95
11
-1229.32
21
43.95
62
4
0
LINE
8
Undeflected
10
-1223.36
20
43.95
11
-1222.99
21
43.95
62
5
0
LINE
8
Undeflected
10
-1222.99
20
43.95
11
-1222.79
21
43.95
62
6
0
LINE
8
Undeflected
10
-1220.7
20
43.95
11
-1220.33
21
43.95
62
7
0
LINE
8
Undeflected
10
-1220.33
20
43.95
11
-1220.14
21
43.95
62
8
0
LINE
8
Undeflected
10
-1220.14
20
43.95
11
-1220.33
21
43.95
62
9
0
LINE
8
Undeflected
10
-1220.33
20
43.95
11
-1220.7
21
43.95
62
10
0
LINE
8
Undeflected
10
-1222.79
20
43.95
11
-1223.11
21
43.95
62
1
0
LINE
8
Undeflected
10
-1223.11
20
43.95
11
-1223.36
21
43.95
62
2
0
LINE
8
Undeflected
10
-1229.32
20
43.95
11
-1229.74
21
43.95
62
3
0
LINE
8
Undeflected
10
-1229.74
20
43.95
11
-1229.72
21
43.95
62
4
0
LINE
8
Undeflected
10
-1229.72
20
43.95
11
-1229.4
21
43.95
62
5
0
LINE
8
Undeflected
10
-1229.4
20
43.95
11
-1229.32
21
43.95
62
6
0
LINE
8
Undeflected
10
-1200.61
20
43.95
11
-1200.26
21
43.95
62
7
0
LINE
8
Undeflected
10
-1200.26
20
43.95
11
-1200.11
21
43.95
62
8
0
LINE
8
Undeflected
10
-1200.11
20
43.95
11
-1200.26
21
43.95
62
9
0
LINE
8
Undeflected
10
-1200.26
20
43.95
11
-1200.61
21
43.95
62
10
0
LINE
8
Undeflected
10
-1203.18
20
43.95
11
-1203.47
21
43.95
62
1
0
LINE
8
Undeflected
10
-1203.47
20
43.95
11
-1203.53
21
43.95
62
2
0
LINE
8
Undeflected
10
-1203.18
20
43.95
11
-1203.24
21
43.95
62
3
0
LINE
8
Undeflected
10
-1203.52
20
43.95
11
-1203.53
21
43.95
62
4
0
LINE
8
Undeflected
10
-1203.18
20
43.95
11
-1203.03
21
43.95
62
5
0
LINE
8
Undeflected
10
-1203.03
20
43.95
11
-1202.68
21
43.95
62
6
0
LINE
8
Undeflected
10
-1218.43
20
43.95
11
-1218.3
21
43.95
62
7
0
LINE
8
Undeflected
10
-1218.34
20
43.95
11
-1218.4
21
43.95
62
8
0
LINE
8
Undeflected
10
-1219.31
20
43.95
11
-1219.44
21
43.95
62
9
0
LINE
8
Undeflected
10
-1219.4
20
43.95
11
-1219.34
21
43.95
62
10
0
LINE
8
Undeflected
10
-1215.93
20
43.95
11
-1215.8
21
43.95
62
1
0
LINE
8
Undeflected
10
-1215.84
20
43.95
11
-1215.9
21
43.95
62
2
0
LINE
8
Undeflected
10
-1216.81
20
43.95
11
-1216.94
21
43.95
62
3
0
LINE
8
Undeflected
10
-1216.9
20
43.95
11
-1216.84
21
43.95
62
4
0
LINE
8
Undeflected
10
-1213.43
20
43.95
11
-1213.3
21
43.95
62
5
0
LINE
8
Undeflected
10
-1213.34
20
43.95
11
-1213.4
21
43.95
62
6
0
LINE
8
Undeflected
10
-1214.31
20
43.95
11
-1214.44
21
43.95
62
7
0
LINE
8
Undeflected
10
-1214.4
20
43.95
11
-1214.34
21
43.95
62
8
0
LINE
8
Undeflected
10
-1211.81
20
43.95
11
-1211.94
21
43.95
62
9
0
LINE
8
Undeflected
10
-1211.9
20
43.95
11
-1211.84
21
43.95
62
10
0
LINE
8
Undeflected
10
-1210.93
20
43.95
11
-1210.8
21
43.95
62
1
0
LINE
8
Undeflected
10
-1210.84
20
43.95
11
-1210.9
21
43.95
62
2
0
LINE
8
Undeflected
10
-1209.31
20
43.95
11
-1209.44
21
43.95
62
3
0
LINE
8
Undeflected
10
-1209.4
20
43.95
11
-1209.34
21
43.95
62
4
0
LINE
8
Undeflected
10
-1208.43
20
43.95
11
-1208.3
21
43.95
62
5
0
LINE
8
Undeflected
10
-1208.34
20
43.95
11
-1208.4
21
43.95
62
6
0
LINE
8
Undeflected
10
-1206.81
20
43.95
11
-1206.94
21
43.95
62
7
0
LINE
8
Undeflected
10
-1206.9
20
43.95
11
-1206.84
21
43.95
62
8
0
LINE
8
Undeflected
10
-1205.93
20
43.95
11
-1205.8
21
43.95
62
9
0
LINE
8
Undeflected
10
-1205.84
20
43.95
11
-1205.9
21
43.95
62
10
0
LINE
8
Undeflected
10
-1219.31
20
43.95
11
-1219.44
21
43.95
62
1
0
LINE
8
Undeflected
10
-1219.4
20
43.95
11
-1219.34
21
43.95
62
2
0
LINE
8
Undeflected
10
-1218.43
20
43.95
11
-1218.3
21
43.95
62
3
0
LINE
8
Undeflected
10
-1218.34
20
43.95
11
-1218.4
21
43.95
62
4
0
LINE
8
Undeflected
10
-1216.81
20
43.95
11
-1216.94
21
43.95
62
5
0
LINE
8
Undeflected
10
-1216.9
20
43.95
11
-1216.84
21
43.95
62
6
0
LINE
8
Undeflected
10
-1215.93
20
43.95
11
-1215.8
21
43.95
62
7
0
LINE
8
Undeflected
10
-1215.84
20
43.95
11
-1215.9
21
43.95
62
8
0
LINE
8
Undeflected
10
-1213.43
20
43.95
11
-1213.3
21
43.95
62
9
0
LINE
8
Undeflected
10
-1213.34
20
43.95
11
-1213.4
21
43.95
62
10
0
LINE
8
Undeflected
10
-1214.31
20
43.95
11
-1214.44
21
43.95
62
1
0
LINE
8
Undeflected
10
-1214.4
20
43.95
11
-1214.34
21
43.95
62
2
0
LINE
8
Undeflected
10
-1211.81
20
43.95
11
-1211.94
21
43.95
62
3
0
LINE
8
Undeflected
10
-1211.9
20
43.95
11
-1211.84
21
43.95
62
4
0
LINE
8
Undeflected
10
-1210.93
20
43.95
11
-1210.8
21
43.95
62
5
0
LINE
8
Undeflected
10
-1210.84
20
43.95
11
-1210.9
21
43.95
62
6
0
LINE
8
Undeflected
10
-1209.31
20
43.95
11
-1209.44
21
43.95
62
7
0
LINE
8
Undeflected
10
-1209.4
20
43.95
11
-1209.34
21
43.95
62
8
0
LINE
8
Undeflected
10
-1208.43
20
43.95
11
-1208.3
21
43.95
62
9
0
LINE
8
Undeflected
10
-1208.34
20
43.95
11
-1208.4
21
43.95
62
10
0
LINE
8
Undeflected
10
-1206.81
20
43.95
11
-1206.94
21
43.95
62
1
0
LINE
8
Undeflected
10
-1206.9
20
43.95
11
-1206.84
21
43.95
62
2
0
LINE
8
Undeflected
10
-1205.91
20
43.95
11
-1205.85
21
43.95
62
3
0
LINE
8
Undeflected
10
-1219.31
20
43.95
11
-1219.44
21
43.95
62
4
0
LINE
8
Undeflected
10
-1219.4
20
43.95
11
-1219.34
21
43.95
62
5
0
LINE
8
Undeflected
10
-1218.43
20
43.95
11
-1218.3
21
43.95
62
6
0
LINE
8
Undeflected
10
-1218.34
20
43.95
11
-1218.4
21
43.95
62
7
0
LINE
8
Undeflected
10
-1216.81
20
43.95
11
-1216.94
21
43.95
62
8
0
LINE
8
Undeflected
10
-1216.9
20
43.95
11
-1216.84
21
43.95
62
9
0
LINE
8
Undeflected
10
-1215.93
20
43.95
11
-1215.8
21
43.95
62
10
0
LINE
8
Undeflected
10
-1215.84
20
43.95
11
-1215.9
21
43.95
62
1
0
LINE
8
Undeflected
10
-1214.31
20
43.95
11
-1214.44
21
43.95
62
2
0
LINE
8
Undeflected
10
-1214.4
20
43.95
11
-1214.34
21
43.95
62
3
0
LINE
8
Undeflected
10
-1213.43
20
43.95
11
-1213.3
21
43.95
62
4
0
LINE
8
Undeflected
10
-1213.34
20
43.95
11
-1213.4
21
43.95
62
5
0
LINE
8
Undeflected
10
-1211.81
20
43.95
11
-1211.94
21
43.95
62
6
0
LINE
8
Undeflected
10
-1211.9
20
43.95
11
-1211.84
21
43.95
62
7
0
LINE
8
Undeflected
10
-1210.93
20
43.95
11
-1210.8
21
43.95
62
8
0
LINE
8
Undeflected
10
-1210.84
20
43.95
11
-1210.9
21
43.95
62
9
0
LINE
8
Undeflected
10
-1209.31
20
43.95
11
-1209.44
21
43.95
62
10
0
LINE
8
Undeflected
10
-1209.4
20
43.95
11
-1209.34
21
43.95
62
1
0
LINE
8
Undeflected
10
-1208.43
20
43.95
11
-1208.3
21
43.95
62
2
0
LINE
8
Undeflected
10
-1208.34
20
43.95
11
-1208.4
21
43.95
62
3
0
LINE
8
Undeflected
10
-1206.81
20
43.95
11
-1206.94
21
43.95
62
4
0
LINE
8
Undeflected
10
-1206.9
20
43.95
11
-1206.84
21
43.95
62
5
0
LINE
8
Undeflected
10
-1205.91
20
43.95
11
-1205.85
21
43.95
62
6
0
LINE
8
Undeflected
10
-1218.39
20
43.95
11
-1218.18
21
43.95
62
7
0
LINE
8
Undeflected
10
-1218.18
20
43.95
11
-1218.07
21
43.95
62
8
0
LINE
8
Undeflected
10
-1208.42
20
43.95
11
-1208.11
21
43.95
62
9
0
LINE
8
Undeflected
10
-1208.11
20
43.95
11
-1208.03
21
43.95
62
10
0
LINE
8
Undeflected
10
-1208.34
20
43.95
11
-1208.4
21
43.95
62
1
0
LINE
8
Undeflected
10
-1218.01
20
43.95
11
-1218.14
21
43.95
62
2
0
LINE
8
Undeflected
10
-1218.02
20
43.95
11
-1218.33
21
43.95
62
3
0
LINE
8
Undeflected
10
-1218.33
20
43.95
11
-1218.41
21
43.95
62
4
0
LINE
8
Undeflected
10
-1218.1
20
43.95
11
-1218.04
21
43.95
62
5
0
LINE
8
Undeflected
10
-1208.43
20
43.95
11
-1208.3
21
43.95
62
6
0
LINE
8
Undeflected
10
-1208.05
20
43.95
11
-1208.26
21
43.95
62
7
0
LINE
8
Undeflected
10
-1208.26
20
43.95
11
-1208.37
21
43.95
62
8
0
LINE
8
Undeflected
10
-1218.39
20
43.95
11
-1218.18
21
43.95
62
9
0
LINE
8
Undeflected
10
-1218.18
20
43.95
11
-1218.07
21
43.95
62
10
0
LINE
8
Undeflected
10
-1208.42
20
43.95
11
-1208.11
21
43.95
62
1
0
LINE
8
Undeflected
10
-1208.11
20
43.95
11
-1208.03
21
43.95
62
2
0
LINE
8
Undeflected
10
-1208.34
20
43.95
11
-1208.4
21
43.95
62
3
0
LINE
8
Undeflected
10
-1218.01
20
43.95
11
-1218.14
21
43.95
62
4
0
LINE
8
Undeflected
10
-1218.02
20
43.95
11
-1218.33
21
43.95
62
5
0
LINE
8
Undeflected
10
-1218.33
20
43.95
11
-1218.41
21
43.95
62
6
0
LINE
8
Undeflected
10
-1218.1
20
43.95
11
-1218.04
21
43.95
62
7
0
LINE
8
Undeflected
10
-1208.43
20
43.95
11
-1208.3
21
43.95
62
8
0
LINE
8
Undeflected
10
-1208.05
20
43.95
11
-1208.26
21
43.95
62
9
0
LINE
8
Undeflected
10
-1208.26
20
43.95
11
-1208.37
21
43.95
62
10
0
LINE
8
Undeflected
10
-1205.48
20
43.95
11
-1205.82
21
43.95
62
1
0
LINE
8
Undeflected
10
-1205.82
20
43.95
11
-1205.94
21
43.95
62
2
0
LINE
8
Undeflected
10
-1200.73
20
43.95
11
-1200.6
21
43.95
62
3
0
LINE
8
Undeflected
10
-1200.64
20
43.95
11
-1200.7
21
43.95
62
4
0
LINE
8
Undeflected
10
-1205.8
20
43.95
11
-1205.68
21
43.95
62
5
0
LINE
8
Undeflected
10
-1200.73
20
43.95
11
-1200.6
21
43.95
62
6
0
LINE
8
Undeflected
10
-1200.64
20
43.95
11
-1200.7
21
43.95
62
7
0
LINE
8
Undeflected
10
-1203.18
20
43.95
11
-1203.03
21
43.95
62
8
0
LINE
8
Undeflected
10
-1203.03
20
43.95
11
-1202.68
21
43.95
62
9
0
LINE
8
Undeflected
10
-1203.53
20
43.95
11
-1203.53
21
43.95
62
10
0
LINE
8
Undeflected
10
-1203.26
20
43.95
11
-1203.21
21
43.95
62
1
0
LINE
8
Undeflected
10
-1203.53
20
43.95
11
-1203.51
21
43.95
62
2
0
LINE
8
Undeflected
10
-1203.41
20
43.95
11
-1203.36
21
43.95
62
3
0
LINE
8
Undeflected
10
-1200.11
20
43.95
11
-1200.26
21
43.95
62
4
0
LINE
8
Undeflected
10
-1200.26
20
43.95
11
-1200.61
21
43.95
62
5
0
LINE
8
Undeflected
10
-1200.61
20
43.95
11
-1200.26
21
43.95
62
6
0
LINE
8
Undeflected
10
-1200.26
20
43.95
11
-1200.11
21
43.95
62
7
0
LINE
8
Undeflected
10
-1198.89
20
43.7813
11
-1199.09
21
43.95
62
8
0
LINE
8
Undeflected
10
-1199.09
20
43.95
11
-1198.89
21
43.784
62
9
0
LINE
8
Undeflected
10
-1199.07
20
43.65
11
-1199.08
21
43.6969
62
10
0
LINE
8
Undeflected
10
-1229.52
20
43.65
11
-1229.52
21
43.7497
62
1
0
LINE
8
Undeflected
10
-1229.32
20
43.95
11
-1229.32
21
43.7587
62
2
0
LINE
8
Undeflected
10
-1229.32
20
43.7587
11
-1229.32
21
43.6712
62
3
0
LINE
8
Undeflected
10
-1199.07
20
43.65
11
-1229.32
21
43.65
62
4
0
LINE
8
Undeflected
10
-1199.09
20
43.95
11
-1199.08
21
43.7427
62
5
0
LINE
8
Undeflected
10
-1199.08
20
43.7427
11
-1199.07
21
43.65
62
6
0
LINE
8
Undeflected
10
-1218.32
20
-35
11
-1218.32
21
33
62
7
0
LINE
8
Undeflected
10
-1220.32
20
35
11
-1234.92
21
35
62
8
0
LINE
8
Undeflected
10
-1234.92
20
36.05
11
-1234.92
21
35
62
9
0
LINE
8
Undeflected
10
-1232.68
20
36.05
11
-1234.92
21
36.05
62
10
0
LINE
8
Undeflected
10
-1232.68
20
36.05
11
-1232.37
21
36.1887
62
1
0
LINE
8
Undeflected
10
-1232.37
20
36.1887
11
-1232.27
21
36.3918
62
2
0
LINE
8
Undeflected
10
-1232.27
20
36.3918
11
-1232.2
21
36.883
62
3
0
LINE
8
Undeflected
10
-1232.2
20
36.883
11
-1232.13
21
37.3744
62
4
0
LINE
8
Undeflected
10
-1232.13
20
37.3744
11
-1232.05
21
37.8657
62
5
0
LINE
8
Undeflected
10
-1232.05
20
37.8657
11
-1231.97
21
38.3569
62
6
0
LINE
8
Undeflected
10
-1231.97
20
38.3569
11
-1231.9
21
38.8478
62
7
0
LINE
8
Undeflected
10
-1231.9
20
38.8478
11
-1231.88
21
39.0237
62
8
0
LINE
8
Undeflected
10
-1231.88
20
40.3603
11
-1231.88
21
39.0237
62
9
0
LINE
8
Undeflected
10
-1231.88
20
40.3603
11
-1231.78
21
40.4606
62
10
0
LINE
8
Undeflected
10
-1230.4
20
40.4846
11
-1231.78
21
40.4606
62
1
0
LINE
8
Undeflected
10
-1230.4
20
40.4846
11
-1230.08
21
40.5394
62
2
0
LINE
8
Undeflected
10
-1230.08
20
40.5394
11
-1229.78
21
40.6875
62
3
0
LINE
8
Undeflected
10
-1229.78
20
40.6875
11
-1229.55
21
40.9158
62
4
0
LINE
8
Undeflected
10
-1229.55
20
40.9158
11
-1229.39
21
41.2038
62
5
0
LINE
8
Undeflected
10
-1229.39
20
41.2038
11
-1229.32
21
41.5258
62
6
0
LINE
8
Undeflected
10
-1229.32
20
43.65
11
-1229.32
21
41.5844
62
7
0
LINE
8
Undeflected
10
-1199.07
20
43.65
11
-1198.22
21
38.2519
62
8
0
LINE
8
Undeflected
10
-1198.22
20
18.7127
11
-1198.22
21
38.2519
62
9
0
LINE
8
Undeflected
10
-1198.22
20
18.7127
11
-1203.38
21
18.7121
62
10
0
LINE
8
Undeflected
10
-1203.38
20
12.0362
11
-1203.38
21
18.7121
62
1
0
LINE
8
Undeflected
10
-1202.72
20
12.0362
11
-1203.38
21
12.0362
62
2
0
LINE
8
Undeflected
10
-1202.72
20
-14.8726
11
-1202.72
21
12.0362
62
3
0
LINE
8
Undeflected
10
-1202.72
20
-14.8726
11
-1202.91
21
-14.8726
62
4
0
LINE
8
Undeflected
10
-1202.91
20
-14.8726
11
-1202.91
21
-19.4423
62
5
0
LINE
8
Undeflected
10
-1202.91
20
-19.4423
11
-1202.75
21
-19.766
62
6
0
LINE
8
Undeflected
10
-1202.75
20
-19.766
11
-1202.51
21
-19.8423
62
7
0
LINE
8
Undeflected
10
-1202.51
20
-19.8423
11
-1198.22
21
-19.8423
62
8
0
LINE
8
Undeflected
10
-1198.22
20
-45.65
11
-1198.22
21
-19.8423
62
9
0
LINE
8
Undeflected
10
-1229.32
20
-45.65
11
-1198.22
21
-45.65
62
10
0
LINE
8
Undeflected
10
-1229.32
20
-43.5844
11
-1229.32
21
-45.65
62
1
0
LINE
8
Undeflected
10
-1229.32
20
-43.5844
11
-1229.37
21
-43.2594
62
2
0
LINE
8
Undeflected
10
-1229.37
20
-43.2594
11
-1229.51
21
-42.9633
62
3
0
LINE
8
Undeflected
10
-1229.51
20
-42.9633
11
-1229.74
21
-42.7228
62
4
0
LINE
8
Undeflected
10
-1229.74
20
-42.7228
11
-1230.02
21
-42.5592
62
5
0
LINE
8
Undeflected
10
-1230.02
20
-42.5592
11
-1230.34
21
-42.4872
62
6
0
LINE
8
Undeflected
10
-1231.78
20
-42.4606
11
-1230.4
21
-42.4846
62
7
0
LINE
8
Undeflected
10
-1231.78
20
-42.4606
11
-1231.88
21
-42.3603
62
8
0
LINE
8
Undeflected
10
-1231.88
20
-41.0237
11
-1231.88
21
-42.3603
62
9
0
LINE
8
Undeflected
10
-1231.88
20
-41.0237
11
-1231.9
21
-40.8478
62
10
0
LINE
8
Undeflected
10
-1231.9
20
-40.8478
11
-1231.97
21
-40.3569
62
1
0
LINE
8
Undeflected
10
-1231.97
20
-40.3569
11
-1232.05
21
-39.8657
62
2
0
LINE
8
Undeflected
10
-1232.05
20
-39.8657
11
-1232.13
21
-39.3744
62
3
0
LINE
8
Undeflected
10
-1232.13
20
-39.3744
11
-1232.2
21
-38.883
62
4
0
LINE
8
Undeflected
10
-1232.2
20
-38.883
11
-1232.27
21
-38.3917
62
5
0
LINE
8
Undeflected
10
-1232.27
20
-38.3917
11
-1232.46
21
-38.112
62
6
0
LINE
8
Undeflected
10
-1232.46
20
-38.112
11
-1232.68
21
-38.05
62
7
0
LINE
8
Undeflected
10
-1234.92
20
-38.05
11
-1232.68
21
-38.05
62
8
0
LINE
8
Undeflected
10
-1234.92
20
-37
11
-1234.92
21
-38.05
62
9
0
LINE
8
Undeflected
10
-1234.92
20
-37
11
-1220.32
21
-37
62
10
0
LINE
8
Undeflected
10
-1211.24
20
3.69654
11
-1211.33
21
3.69218
62
1
0
LINE
8
Undeflected
10
-1211.33
20
3.69218
11
-1211.64
21
3.60515
62
2
0
LINE
8
Undeflected
10
-1211.64
20
3.60515
11
-1211.97
21
3.42111
62
3
0
LINE
8
Undeflected
10
-1211.97
20
3.42111
11
-1212.13
21
3.30346
62
4
0
LINE
8
Undeflected
10
-1212.13
20
2.19654
11
-1212.13
21
3.30346
62
5
0
LINE
8
Undeflected
10
-1212.13
20
2.19654
11
-1211.8
21
1.97661
62
6
0
LINE
8
Undeflected
10
-1211.8
20
1.97661
11
-1211.49
21
1.84114
62
7
0
LINE
8
Undeflected
10
-1211.49
20
1.84114
11
-1211.33
21
1.80782
62
8
0
LINE
8
Undeflected
10
-1211.33
20
1.80782
11
-1211.24
21
1.80346
62
9
0
LINE
8
Undeflected
10
-1211.24
20
1.80346
11
-1204.68
21
1.80346
62
10
0
LINE
8
Undeflected
10
-1204.68
20
1.80346
11
-1204.36
21
1.96804
62
1
0
LINE
8
Undeflected
10
-1204.36
20
1.96804
11
-1204.28
21
2.2034
62
2
0
LINE
8
Undeflected
10
-1204.28
20
2.2034
11
-1204.28
21
3.2966
62
3
0
LINE
8
Undeflected
10
-1204.28
20
3.2966
11
-1204.44
21
3.61984
62
4
0
LINE
8
Undeflected
10
-1204.44
20
3.61984
11
-1204.68
21
3.69654
62
5
0
LINE
8
Undeflected
10
-1204.68
20
3.69654
11
-1211.24
21
3.69654
62
6
0
LINE
8
Undeflected
10
-1211.33
20
1.19218
11
-1211.64
21
1.10515
62
7
0
LINE
8
Undeflected
10
-1211.64
20
1.10515
11
-1211.97
21
0.921108
62
8
0
LINE
8
Undeflected
10
-1211.97
20
0.921108
11
-1212.13
21
0.803461
62
9
0
LINE
8
Undeflected
10
-1212.13
20
-0.303463
11
-1212.13
21
0.803461
62
10
0
LINE
8
Undeflected
10
-1212.13
20
-0.303463
11
-1211.8
21
-0.523385
62
1
0
LINE
8
Undeflected
10
-1211.8
20
-0.523385
11
-1211.49
21
-0.65886
62
2
0
LINE
8
Undeflected
10
-1211.49
20
-0.65886
11
-1211.33
21
-0.692183
62
3
0
LINE
8
Undeflected
10
-1211.33
20
-0.692183
11
-1211.24
21
-0.696539
62
4
0
LINE
8
Undeflected
10
-1211.24
20
-0.696539
11
-1204.68
21
-0.696539
62
5
0
LINE
8
Undeflected
10
-1204.68
20
-0.696539
11
-1204.36
21
-0.531963
62
6
0
LINE
8
Undeflected
10
-1204.36
20
-0.531963
11
-1204.28
21
-0.296599
62
7
0
LINE
8
Undeflected
10
-1204.28
20
-0.296599
11
-1204.28
21
0.796599
62
8
0
LINE
8
Undeflected
10
-1204.28
20
0.796599
11
-1204.44
21
1.11984
62
9
0
LINE
8
Undeflected
10
-1204.44
20
1.11984
11
-1204.68
21
1.19654
62
10
0
LINE
8
Undeflected
10
-1204.68
20
1.19654
11
-1211.24
21
1.19654
62
1
0
LINE
8
Undeflected
10
-1211.24
20
1.19654
11
-1211.33
21
1.19218
62
2
0
LINE
8
Undeflected
10
-1211.24
20
-1.30346
11
-1211.33
21
-1.30782
62
3
0
LINE
8
Undeflected
10
-1211.33
20
-1.30782
11
-1211.64
21
-1.39485
62
4
0
LINE
8
Undeflected
10
-1211.64
20
-1.39485
11
-1211.97
21
-1.57889
62
5
0
LINE
8
Undeflected
10
-1211.97
20
-1.57889
11
-1212.13
21
-1.69654
62
6
0
LINE
8
Undeflected
10
-1212.13
20
-2.80346
11
-1212.13
21
-1.69654
62
7
0
LINE
8
Undeflected
10
-1212.13
20
-2.80346
11
-1211.8
21
-3.02339
62
8
0
LINE
8
Undeflected
10
-1211.8
20
-3.02339
11
-1211.49
21
-3.15886
62
9
0
LINE
8
Undeflected
10
-1211.49
20
-3.15886
11
-1211.33
21
-3.19218
62
10
0
LINE
8
Undeflected
10
-1211.33
20
-3.19218
11
-1211.24
21
-3.19654
62
1
0
LINE
8
Undeflected
10
-1211.24
20
-3.19654
11
-1204.68
21
-3.19654
62
2
0
LINE
8
Undeflected
10
-1204.68
20
-3.19654
11
-1204.36
21
-3.03196
62
3
0
LINE
8
Undeflected
10
-1204.36
20
-3.03196
11
-1204.28
21
-2.7966
62
4
0
LINE
8
Undeflected
10
-1204.28
20
-2.7966
11
-1204.28
21
-1.7034
62
5
0
LINE
8
Undeflected
10
-1204.28
20
-1.7034
11
-1204.44
21
-1.38016
62
6
0
LINE
8
Undeflected
10
-1204.44
20
-1.38016
11
-1204.68
21
-1.30346
62
7
0
LINE
8
Undeflected
10
-1204.68
20
-1.30346
11
-1211.24
21
-1.30346
62
8
0
LINE
8
Undeflected
10
-1211.24
20
-3.80346
11
-1211.33
21
-3.80782
62
9
0
LINE
8
Undeflected
10
-1211.33
20
-3.80782
11
-1211.64
21
-3.89485
62
10
0
LINE
8
Undeflected
10
-1211.64
20
-3.89485
11
-1211.97
21
-4.07889
62
1
0
LINE
8
Undeflected
10
-1211.97
20
-4.07889
11
-1212.13
21
-4.19654
62
2
0
LINE
8
Undeflected
10
-1212.13
20
-5.30346
11
-1212.13
21
-4.19654
62
3
0
LINE
8
Undeflected
10
-1212.13
20
-5.30346
11
-1211.8
21
-5.52339
62
4
0
LINE
8
Undeflected
10
-1211.8
20
-5.52339
11
-1211.49
21
-5.65886
62
5
0
LINE
8
Undeflected
10
-1211.49
20
-5.65886
11
-1211.33
21
-5.69218
62
6
0
LINE
8
Undeflected
10
-1211.33
20
-5.69218
11
-1211.24
21
-5.69654
62
7
0
LINE
8
Undeflected
10
-1211.24
20
-5.69654
11
-1204.68
21
-5.69654
62
8
0
LINE
8
Undeflected
10
-1204.68
20
-5.69654
11
-1204.36
21
-5.53196
62
9
0
LINE
8
Undeflected
10
-1204.36
20
-5.53196
11
-1204.28
21
-5.2966
62
10
0
LINE
8
Undeflected
10
-1204.28
20
-5.2966
11
-1204.28
21
-4.2034
62
1
0
LINE
8
Undeflected
10
-1204.28
20
-4.2034
11
-1204.44
21
-3.88016
62
2
0
LINE
8
Undeflected
10
-1204.44
20
-3.88016
11
-1204.68
21
-3.80346
62
3
0
LINE
8
Undeflected
10
-1204.68
20
-3.80346
11
-1211.24
21
-3.80346
62
4
0
LINE
8
Undeflected
10
-1217.07
20
-6.30346
11
-1204.68
21
-6.30346
62
5
0
LINE
8
Undeflected
10
-1217.07
20
-6.30346
11
-1217.39
21
-6.46804
62
6
0
LINE
8
Undeflected
10
-1217.39
20
-6.46804
11
-1217.47
21
-6.7034
62
7
0
LINE
8
Undeflected
10
-1217.47
20
-6.7034
11
-1217.47
21
-8.24024
62
8
0
LINE
8
Undeflected
10
-1217.47
20
-8.24024
11
-1217.3
21
-8.56348
62
9
0
LINE
8
Undeflected
10
-1217.3
20
-8.56348
11
-1217.07
21
-8.64018
62
10
0
LINE
8
Undeflected
10
-1204.68
20
-8.64018
11
-1217.07
21
-8.64018
62
1
0
LINE
8
Undeflected
10
-1204.68
20
-8.64018
11
-1204.36
21
-8.4756
62
2
0
LINE
8
Undeflected
10
-1204.36
20
-8.4756
11
-1204.28
21
-8.24024
62
3
0
LINE
8
Undeflected
10
-1204.28
20
-8.24024
11
-1204.28
21
-6.7034
62
4
0
LINE
8
Undeflected
10
-1204.28
20
-6.7034
11
-1204.44
21
-6.38016
62
5
0
LINE
8
Undeflected
10
-1204.44
20
-6.38016
11
-1204.68
21
-6.30346
62
6
0
LINE
8
Undeflected
10
-1217.07
20
6.64018
11
-1204.68
21
6.64018
62
7
0
LINE
8
Undeflected
10
-1217.07
20
6.64018
11
-1217.39
21
6.4756
62
8
0
LINE
8
Undeflected
10
-1217.39
20
6.4756
11
-1217.47
21
6.24024
62
9
0
LINE
8
Undeflected
10
-1217.47
20
6.24024
11
-1217.47
21
4.7034
62
10
0
LINE
8
Undeflected
10
-1217.47
20
4.7034
11
-1217.3
21
4.38016
62
1
0
LINE
8
Undeflected
10
-1217.3
20
4.38016
11
-1217.07
21
4.30346
62
2
0
LINE
8
Undeflected
10
-1204.68
20
4.30346
11
-1217.07
21
4.30346
62
3
0
LINE
8
Undeflected
10
-1204.68
20
4.30346
11
-1204.36
21
4.46804
62
4
0
LINE
8
Undeflected
10
-1204.36
20
4.46804
11
-1204.28
21
4.7034
62
5
0
LINE
8
Undeflected
10
-1204.28
20
4.7034
11
-1204.28
21
6.24024
62
6
0
LINE
8
Undeflected
10
-1204.28
20
6.24024
11
-1204.44
21
6.56348
62
7
0
LINE
8
Undeflected
10
-1204.44
20
6.56348
11
-1204.68
21
6.64018
62
8
0
LINE
8
Undeflected
10
-1229.32
20
-45.65
11
-1229.32
21
-45.9296
62
9
0
LINE
8
Undeflected
10
-1229.32
20
-45.9296
11
-1229.32
21
-45.9492
62
10
0
LINE
8
Undeflected
10
-1198.22
20
-45.95
11
-1229.32
21
-45.95
62
1
0
LINE
8
Undeflected
10
-1198.22
20
-45.65
11
-1198.22
21
-45.9296
62
2
0
LINE
8
Undeflected
10
-1198.22
20
-45.9296
11
-1198.22
21
-45.9492
62
3
0
LINE
8
Undeflected
10
-1229.32
20
-45.95
11
-1229.47
21
-45.95
62
4
0
LINE
8
Undeflected
10
-1229.47
20
-45.95
11
-1229.65
21
-45.95
62
5
0
LINE
8
Undeflected
10
-1229.69
20
-45.95
11
-1229.32
21
-45.95
62
6
0
LINE
8
Undeflected
10
-1223.36
20
-45.95
11
-1222.99
21
-45.95
62
7
0
LINE
8
Undeflected
10
-1222.99
20
-45.95
11
-1222.79
21
-45.95
62
8
0
LINE
8
Undeflected
10
-1220.7
20
-45.95
11
-1220.33
21
-45.95
62
9
0
LINE
8
Undeflected
10
-1220.33
20
-45.95
11
-1220.14
21
-45.95
62
10
0
LINE
8
Undeflected
10
-1220.14
20
-45.95
11
-1220.33
21
-45.95
62
1
0
LINE
8
Undeflected
10
-1220.33
20
-45.95
11
-1220.7
21
-45.95
62
2
0
LINE
8
Undeflected
10
-1222.79
20
-45.95
11
-1223.11
21
-45.95
62
3
0
LINE
8
Undeflected
10
-1223.11
20
-45.95
11
-1223.36
21
-45.95
62
4
0
LINE
8
Undeflected
10
-1229.32
20
-45.95
11
-1229.69
21
-45.95
62
5
0
LINE
8
Undeflected
10
-1229.69
20
-45.95
11
-1229.32
21
-45.95
62
6
0
LINE
8
Undeflected
10
-1223.36
20
-45.95
11
-1222.99
21
-45.95
62
7
0
LINE
8
Undeflected
10
-1222.99
20
-45.95
11
-1222.79
21
-45.95
62
8
0
LINE
8
Undeflected
10
-1220.7
20
-45.95
11
-1220.33
21
-45.95
62
9
0
LINE
8
Undeflected
10
-1220.33
20
-45.95
11
-1220.14
21
-45.95
62
10
0
LINE
8
Undeflected
10
-1220.14
20
-45.95
11
-1220.33
21
-45.95
62
1
0
LINE
8
Undeflected
10
-1220.33
20
-45.95
11
-1220.7
21
-45.95
62
2
0
LINE
8
Undeflected
10
-1222.79
20
-45.95
11
-1223.11
21
-45.95
62
3
0
LINE
8
Undeflected
10
-1223.11
20
-45.95
11
-1223.36
21
-45.95
62
4
0
LINE
8
Undeflected
10
-1229.32
20
-45.95
11
-1229.69
21
-45.95
62
5
0
LINE
8
Undeflected
10
-1229.69
20
-45.95
11
-1229.39
21
-45.95
62
6
0
LINE
8
Undeflected
10
-1229.39
20
-45.95
11
-1229.32
21
-45.95
62
7
0
LINE
8
Undeflected
10
-1203.32
20
-45.95
11
-1203.37
21
-45.95
62
8
0
LINE
8
Undeflected
10
-1203.5
20
-45.95
11
-1203.53
21
-45.95
62
9
0
LINE
8
Undeflected
10
-1203.53
20
-45.95
11
-1203.51
21
-45.95
62
10
0
LINE
8
Undeflected
10
-1203.41
20
-45.95
11
-1203.36
21
-45.95
62
1
0
LINE
8
Undeflected
10
-1205.93
20
-45.95
11
-1205.8
21
-45.95
62
2
0
LINE
8
Undeflected
10
-1205.84
20
-45.95
11
-1205.9
21
-45.95
62
3
0
LINE
8
Undeflected
10
-1206.81
20
-45.95
11
-1206.94
21
-45.95
62
4
0
LINE
8
Undeflected
10
-1206.9
20
-45.95
11
-1206.84
21
-45.95
62
5
0
LINE
8
Undeflected
10
-1208.43
20
-45.95
11
-1208.3
21
-45.95
62
6
0
LINE
8
Undeflected
10
-1208.34
20
-45.95
11
-1208.4
21
-45.95
62
7
0
LINE
8
Undeflected
10
-1209.31
20
-45.95
11
-1209.44
21
-45.95
62
8
0
LINE
8
Undeflected
10
-1209.4
20
-45.95
11
-1209.34
21
-45.95
62
9
0
LINE
8
Undeflected
10
-1210.93
20
-45.95
11
-1210.8
21
-45.95
62
10
0
LINE
8
Undeflected
10
-1210.84
20
-45.95
11
-1210.9
21
-45.95
62
1
0
LINE
8
Undeflected
10
-1211.81
20
-45.95
11
-1211.94
21
-45.95
62
2
0
LINE
8
Undeflected
10
-1211.9
20
-45.95
11
-1211.84
21
-45.95
62
3
0
LINE
8
Undeflected
10
-1213.43
20
-45.95
11
-1213.3
21
-45.95
62
4
0
LINE
8
Undeflected
10
-1213.34
20
-45.95
11
-1213.4
21
-45.95
62
5
0
LINE
8
Undeflected
10
-1214.31
20
-45.95
11
-1214.44
21
-45.95
62
6
0
LINE
8
Undeflected
10
-1214.4
20
-45.95
11
-1214.34
21
-45.95
62
7
0
LINE
8
Undeflected
10
-1215.93
20
-45.95
11
-1215.8
21
-45.95
62
8
0
LINE
8
Undeflected
10
-1215.84
20
-45.95
11
-1215.9
21
-45.95
62
9
0
LINE
8
Undeflected
10
-1216.81
20
-45.95
11
-1216.94
21
-45.95
62
10
0
LINE
8
Undeflected
10
-1216.9
20
-45.95
11
-1216.84
21
-45.95
62
1
0
LINE
8
Undeflected
10
-1218.43
20
-45.95
11
-1218.3
21
-45.95
62
2
0
LINE
8
Undeflected
10
-1218.34
20
-45.95
11
-1218.4
21
-45.95
62
3
0
LINE
8
Undeflected
10
-1219.31
20
-45.95
11
-1219.44
21
-45.95
62
4
0
LINE
8
Undeflected
10
-1219.4
20
-45.95
11
-1219.34
21
-45.95
62
5
0
LINE
8
Undeflected
10
-1218.43
20
-45.95
11
-1218.3
21
-45.95
62
6
0
LINE
8
Undeflected
10
-1218.34
20
-45.95
11
-1218.4
21
-45.95
62
7
0
LINE
8
Undeflected
10
-1219.31
20
-45.95
11
-1219.44
21
-45.95
62
8
0
LINE
8
Undeflected
10
-1219.4
20
-45.95
11
-1219.34
21
-45.95
62
9
0
LINE
8
Undeflected
10
-1215.93
20
-45.95
11
-1215.8
21
-45.95
62
10
0
LINE
8
Undeflected
10
-1215.84
20
-45.95
11
-1215.9
21
-45.95
62
1
0
LINE
8
Undeflected
10
-1216.81
20
-45.95
11
-1216.94
21
-45.95
62
2
0
LINE
8
Undeflected
10
-1216.9
20
-45.95
11
-1216.84
21
-45.95
62
3
0
LINE
8
Undeflected
10
-1213.43
20
-45.95
11
-1213.3
21
-45.95
62
4
0
LINE
8
Undeflected
10
-1213.34
20
-45.95
11
-1213.4
21
-45.95
62
5
0
LINE
8
Undeflected
10
-1214.31
20
-45.95
11
-1214.44
21
-45.95
62
6
0
LINE
8
Undeflected
10
-1214.4
20
-45.95
11
-1214.34
21
-45.95
62
7
0
LINE
8
Undeflected
10
-1211.81
20
-45.95
11
-1211.94
21
-45.95
62
8
0
LINE
8
Undeflected
10
-1211.9
20
-45.95
11
-1211.84
21
-45.95
62
9
0
LINE
8
Undeflected
10
-1210.93
20
-45.95
11
-1210.8
21
-45.95
62
10
0
LINE
8
Undeflected
10
-1210.84
20
-45.95
11
-1210.9
21
-45.95
62
1
0
LINE
8
Undeflected
10
-1209.31
20
-45.95
11
-1209.44
21
-45.95
62
2
0
LINE
8
Undeflected
10
-1209.4
20
-45.95
11
-1209.34
21
-45.95
62
3
0
LINE
8
Undeflected
10
-1208.43
20
-45.95
11
-1208.3
21
-45.95
62
4
0
LINE
8
Undeflected
10
-1208.34
20
-45.95
11
-1208.4
21
-45.95
62
5
0
LINE
8
Undeflected
10
-1206.81
20
-45.95
11
-1206.94
21
-45.95
62
6
0
LINE
8
Undeflected
10
-1206.9
20
-45.95
11
-1206.84
21
-45.95
62
7
0
LINE
8
Undeflected
10
-1205.91
20
-45.95
11
-1205.85
21
-45.95
62
8
0
LINE
8
Undeflected
10
-1205.84
20
-45.95
11
-1205.9
21
-45.95
62
9
0
LINE
8
Undeflected
10
-1205.91
20
-45.95
11
-1205.85
21
-45.95
62
10
0
LINE
8
Undeflected
10
-1205.84
20
-45.95
11
-1205.9
21
-45.95
62
1
0
LINE
8
Undeflected
10
-1206.81
20
-45.95
11
-1206.94
21
-45.95
62
2
0
LINE
8
Undeflected
10
-1206.9
20
-45.95
11
-1206.84
21
-45.95
62
3
0
LINE
8
Undeflected
10
-1208.43
20
-45.95
11
-1208.3
21
-45.95
62
4
0
LINE
8
Undeflected
10
-1208.34
20
-45.95
11
-1208.4
21
-45.95
62
5
0
LINE
8
Undeflected
10
-1209.31
20
-45.95
11
-1209.44
21
-45.95
62
6
0
LINE
8
Undeflected
10
-1209.4
20
-45.95
11
-1209.34
21
-45.95
62
7
0
LINE
8
Undeflected
10
-1210.93
20
-45.95
11
-1210.8
21
-45.95
62
8
0
LINE
8
Undeflected
10
-1210.84
20
-45.95
11
-1210.9
21
-45.95
62
9
0
LINE
8
Undeflected
10
-1211.81
20
-45.95
11
-1211.94
21
-45.95
62
10
0
LINE
8
Undeflected
10
-1211.9
20
-45.95
11
-1211.84
21
-45.95
62
1
0
LINE
8
Undeflected
10
-1213.43
20
-45.95
11
-1213.3
21
-45.95
62
2
0
LINE
8
Undeflected
10
-1213.34
20
-45.95
11
-1213.4
21
-45.95
62
3
0
LINE
8
Undeflected
10
-1214.31
20
-45.95
11
-1214.44
21
-45.95
62
4
0
LINE
8
Undeflected
10
-1214.4
20
-45.95
11
-1214.34
21
-45.95
62
5
0
LINE
8
Undeflected
10
-1215.93
20
-45.95
11
-1215.8
21
-45.95
62
6
0
LINE
8
Undeflected
10
-1215.84
20
-45.95
11
-1215.9
21
-45.95
62
7
0
LINE
8
Undeflected
10
-1216.81
20
-45.95
11
-1216.94
21
-45.95
62
8
0
LINE
8
Undeflected
10
-1216.9
20
-45.95
11
-1216.84
21
-45.95
62
9
0
LINE
8
Undeflected
10
-1218.43
20
-45.95
11
-1218.3
21
-45.95
62
10
0
LINE
8
Undeflected
10
-1218.34
20
-45.95
11
-1218.4
21
-45.95
62
1
0
LINE
8
Undeflected
10
-1219.31
20
-45.95
11
-1219.44
21
-45.95
62
2
0
LINE
8
Undeflected
10
-1219.4
20
-45.95
11
-1219.34
21
-45.95
62
3
0
LINE
8
Undeflected
10
-1218.39
20
-45.95
11
-1218.18
21
-45.95
62
4
0
LINE
8
Undeflected
10
-1218.18
20
-45.95
11
-1218.07
21
-45.95
62
5
0
LINE
8
Undeflected
10
-1208.42
20
-45.95
11
-1208.11
21
-45.95
62
6
0
LINE
8
Undeflected
10
-1208.11
20
-45.95
11
-1208.03
21
-45.95
62
7
0
LINE
8
Undeflected
10
-1208.34
20
-45.95
11
-1208.4
21
-45.95
62
8
0
LINE
8
Undeflected
10
-1218.01
20
-45.95
11
-1218.14
21
-45.95
62
9
0
LINE
8
Undeflected
10
-1218.02
20
-45.95
11
-1218.33
21
-45.95
62
10
0
LINE
8
Undeflected
10
-1218.33
20
-45.95
11
-1218.41
21
-45.95
62
1
0
LINE
8
Undeflected
10
-1218.1
20
-45.95
11
-1218.04
21
-45.95
62
2
0
LINE
8
Undeflected
10
-1208.43
20
-45.95
11
-1208.3
21
-45.95
62
3
0
LINE
8
Undeflected
10
-1208.05
20
-45.95
11
-1208.26
21
-45.95
62
4
0
LINE
8
Undeflected
10
-1208.26
20
-45.95
11
-1208.37
21
-45.95
62
5
0
LINE
8
Undeflected
10
-1218.39
20
-45.95
11
-1218.18
21
-45.95
62
6
0
LINE
8
Undeflected
10
-1218.18
20
-45.95
11
-1218.07
21
-45.95
62
7
0
LINE
8
Undeflected
10
-1208.42
20
-45.95
11
-1208.11
21
-45.95
62
8
0
LINE
8
Undeflected
10
-1208.11
20
-45.95
11
-1208.03
21
-45.95
62
9
0
LINE
8
Undeflected
10
-1208.34
20
-45.95
11
-1208.4
21
-45.95
62
10
0
LINE
8
Undeflected
10
-1218.01
20
-45.95
11
-1218.14
21
-45.95
62
1
0
LINE
8
Undeflected
10
-1218.02
20
-45.95
11
-1218.33
21
-45.95
62
2
0
LINE
8
Undeflected
10
-1218.33
20
-45.95
11
-1218.41
21
-45.95
62
3
0
LINE
8
Undeflected
10
-1218.1
20
-45.95
11
-1218.04
21
-45.95
62
4
0
LINE
8
Undeflected
10
-1208.43
20
-45.95
11
-1208.3
21
-45.95
62
5
0
LINE
8
Undeflected
10
-1208.05
20
-45.95
11
-1208.26
21
-45.95
62
6
0
LINE
8
Undeflected
10
-1208.26
20
-45.95
11
-1208.37
21
-45.95
62
7
0
LINE
8
Undeflected
10
-1205.57
20
-45.95
11
-1205.5
21
-45.95
62
8
0
LINE
8
Undeflected
10
-1200.73
20
-45.95
11
-1200.6
21
-45.95
62
9
0
LINE
8
Undeflected
10
-1200.64
20
-45.95
11
-1200.7
21
-45.95
62
10
0
LINE
8
Undeflected
10
-1205.94
20
-45.95
11
-1205.92
21
-45.95
62
1
0
LINE
8
Undeflected
10
-1205.85
20
-45.95
11
-1205.68
21
-45.95
62
2
0
LINE
8
Undeflected
10
-1200.64
20
-45.95
11
-1200.7
21
-45.95
62
3
0
LINE
8
Undeflected
10
-1205.64
20
-45.95
11
-1205.9
21
-45.95
62
4
0
LINE
8
Undeflected
10
-1205.9
20
-45.95
11
-1205.93
21
-45.95
62
5
0
LINE
8
Undeflected
10
-1205.48
20
-45.95
11
-1205.82
21
-45.95
62
6
0
LINE
8
Undeflected
10
-1205.82
20
-45.95
11
-1205.94
21
-45.95
62
7
0
LINE
8
Undeflected
10
-1200.73
20
-45.95
11
-1200.6
21
-45.95
62
8
0
LINE
8
Undeflected
10
-1203.41
20
-45.95
11
-1203.36
21
-45.95
62
9
0
LINE
8
Undeflected
10
-1203.18
20
-45.95
11
-1203.24
21
-45.95
62
10
0
LINE
8
Undeflected
10
-1203.52
20
-45.95
11
-1203.53
21
-45.95
62
1
0
LINE
8
Undeflected
10
-1229.52
20
-44.6764
11
-1229.52
21
-45.65
62
2
0
LINE
8
Undeflected
10
-1229.52
20
-44.6764
11
-1229.52
21
-44.6967
62
3
0
LINE
8
Undeflected
10
-1229.52
20
-44.7016
11
-1229.52
21
-44.8261
62
4
0
LINE
8
Undeflected
10
-1229.52
20
-45.0756
11
-1229.52
21
-45.0982
62
5
0
LINE
8
Undeflected
10
-1229.52
20
-45.0983
11
-1229.52
21
-45.75
62
6
0
LINE
8
Undeflected
10
-1198.02
20
-45.75
11
-1198.21
21
-45.9495
62
7
0
LINE
8
Undeflected
10
-1198.22
20
-45.95
11
-1198.02
21
-45.7641
62
8
0
LINE
8
Undeflected
10
-1229.52
20
-45.65
11
-1229.33
21
-45.65
62
9
0
LINE
8
Undeflected
10
-1229.52
20
-45.65
11
-1229.52
21
-45.7497
62
10
0
LINE
8
Undeflected
10
-1229.32
20
-45.95
11
-1229.52
21
-45.7641
62
1
0
LINE
8
Undeflected
10
-1220.28
20
-46.0086
11
-1220.15
21
-45.9507
62
2
0
LINE
8
Undeflected
10
-1220.14
20
-45.95
11
-1220.27
21
-45.997
62
3
0
LINE
8
Undeflected
10
-1222.02
20
-47.7471
11
-1222.07
21
-47.7985
62
4
0
LINE
8
Undeflected
10
-1222.07
20
-47.7985
11
-1222.02
21
-47.7471
62
5
0
LINE
8
Undeflected
10
-1220.57
20
-46.1036
11
-1220.28
21
-46.0103
62
6
0
LINE
8
Undeflected
10
-1222.16
20
-47.6092
11
-1222.2
21
-47.6607
62
7
0
LINE
8
Undeflected
10
-1223.06
20
-47.9629
11
-1223.2
21
-47.9666
62
8
0
LINE
8
Undeflected
10
-1223.36
20
-46.1326
11
-1223.22
21
-46.136
62
9
0
LINE
8
Undeflected
10
-1224.64
20
-47.9674
11
-1224.74
21
-47.7892
62
10
0
LINE
8
Undeflected
10
-1224.82
20
-47.4892
11
-1224.82
21
-47.4003
62
1
0
LINE
8
Undeflected
10
-1224.73
20
-47.2326
11
-1224.57
21
-47.1264
62
2
0
LINE
8
Undeflected
10
-1223.62
20
-46.8602
11
-1223.81
21
-47.0599
62
3
0
LINE
8
Undeflected
10
-1220.28
20
-46.0091
11
-1220.44
21
-46.0621
62
4
0
LINE
8
Undeflected
10
-1223.63
20
-46.1326
11
-1223.62
21
-46.1639
62
5
0
LINE
8
Undeflected
10
-1223.81
20
-47.0599
11
-1224.47
21
-47.0944
62
6
0
LINE
8
Undeflected
10
-1224.57
20
-47.1264
11
-1224.73
21
-47.2326
62
7
0
LINE
8
Undeflected
10
-1222.93
20
-46.1465
11
-1223.22
21
-46.136
62
8
0
LINE
8
Undeflected
10
-1223.22
20
-46.136
11
-1223.31
21
-46.1336
62
9
0
LINE
8
Undeflected
10
-1224.53
20
-48.15
11
-1223.24
21
-48.15
62
10
0
LINE
8
Undeflected
10
-1223.16
20
-48.15
11
-1223.24
21
-48.15
62
1
0
LINE
8
Undeflected
10
-1222.92
20
-48.15
11
-1222.96
21
-48.15
62
2
0
LINE
8
Undeflected
10
-1222.96
20
-48.15
11
-1222.92
21
-48.15
62
3
0
LINE
8
Undeflected
10
-1223.17
20
-48.15
11
-1222.99
21
-48.15
62
4
0
LINE
8
Undeflected
10
-1222.92
20
-48.15
11
-1222.87
21
-48.1388
62
5
0
LINE
8
Undeflected
10
-1222.8
20
-48.0584
11
-1222.78
21
-47.976
62
6
0
LINE
8
Undeflected
10
-1222.7
20
-48.1297
11
-1222.79
21
-48.1431
62
7
0
LINE
8
Undeflected
10
-1222.84
20
-48.1478
11
-1222.71
21
-48.1315
62
8
0
LINE
8
Undeflected
10
-1222.31
20
-47.985
11
-1222.44
21
-48.0492
62
9
0
LINE
8
Undeflected
10
-1222.69
20
-48.128
11
-1222.76
21
-48.1392
62
10
0
LINE
8
Undeflected
10
-1222.49
20
-48.0715
11
-1222.3
21
-47.9792
62
1
0
LINE
8
Undeflected
10
-1222.87
20
-48.1104
11
-1222.82
21
-47.956
62
2
0
LINE
8
Undeflected
10
-1235.12
20
36.05
11
-1234.93
21
36.05
62
3
0
LINE
8
Undeflected
10
-1235.12
20
-38.05
11
-1235.12
21
-37
62
4
0
LINE
8
Undeflected
10
-1235.12
20
35
11
-1235.12
21
36.05
62
5
0
LINE
8
Undeflected
10
-1234.92
20
-38.05
11
-1235.12
21
-38.05
62
6
0
LINE
8
Undeflected
10
-1234.92
20
-38.25
11
-1234.92
21
-38.0641
62
7
0
LINE
8
Undeflected
10
-1232.68
20
-38.25
11
-1234.92
21
-38.25
62
8
0
LINE
8
Undeflected
10
-1232.68
20
-38.05
11
-1232.68
21
-38.25
62
9
0
LINE
8
Undeflected
10
-1232.68
20
-38.25
11
-1232.56
21
-38.25
62
10
0
LINE
8
Undeflected
10
-1232.56
20
-38.25
11
-1232.34
21
-38.25
62
1
0
LINE
8
Undeflected
10
-1232.32
20
-38.25
11
-1232.68
21
-38.25
62
2
0
LINE
8
Undeflected
10
-1234.92
20
-38.25
11
-1235.12
21
-38.05
62
3
0
LINE
8
Undeflected
10
-1235.06
20
-38.1914
11
-1234.94
21
-38.2493
62
4
0
LINE
8
Undeflected
10
-1235.12
20
-38.05
11
-1235.07
21
-38.1788
62
5
0
LINE
8
Undeflected
10
-1232.68
20
36.25
11
-1232.68
21
36.0641
62
6
0
LINE
8
Undeflected
10
-1234.92
20
36.25
11
-1232.68
21
36.25
62
7
0
LINE
8
Undeflected
10
-1234.92
20
36.05
11
-1234.92
21
36.2495
62
8
0
LINE
8
Undeflected
10
-1232.68
20
36.25
11
-1232.33
21
36.25
62
9
0
LINE
8
Undeflected
10
-1232.33
20
36.25
11
-1232.55
21
36.25
62
10
0
LINE
8
Undeflected
10
-1232.55
20
36.25
11
-1232.68
21
36.25
62
1
0
LINE
8
Undeflected
10
-1235.12
20
36.05
11
-1234.92
21
36.25
62
2
0
LINE
8
Undeflected
10
-1235.06
20
36.1914
11
-1235.12
21
36.0671
62
3
0
LINE
8
Undeflected
10
-1234.92
20
36.25
11
-1235.05
21
36.203
62
4
0
LINE
8
Undeflected
10
-1229.32
20
43.65
11
-1229.52
21
43.65
62
5
0
LINE
8
Undeflected
10
-1229.52
20
41.5844
11
-1229.52
21
43.65
62
6
0
LINE
8
Undeflected
10
-1229.52
20
41.5844
11
-1229.33
21
41.5844
62
7
0
LINE
8
Undeflected
10
-1229.52
20
42.6507
11
-1229.52
21
42.7016
62
8
0
LINE
8
Undeflected
10
-1229.52
20
42.7016
11
-1229.52
21
42.8261
62
9
0
LINE
8
Undeflected
10
-1229.52
20
43.0756
11
-1229.52
21
43.0982
62
10
0
LINE
8
Undeflected
10
-1229.52
20
43.75
11
-1229.52
21
43.6571
62
1
0
LINE
8
Undeflected
10
-1230.4
20
40.6846
11
-1230.06
21
40.7617
62
2
0
LINE
8
Undeflected
10
-1230.06
20
40.7617
11
-1229.76
21
40.9688
62
3
0
LINE
8
Undeflected
10
-1229.76
20
40.9688
11
-1229.58
21
41.273
62
4
0
LINE
8
Undeflected
10
-1229.58
20
41.273
11
-1229.52
21
41.5364
62
5
0
LINE
8
Undeflected
10
-1230.4
20
40.4846
11
-1230.4
21
40.6841
62
6
0
LINE
8
Undeflected
10
-1231.78
20
40.6606
11
-1231.78
21
40.4748
62
7
0
LINE
8
Undeflected
10
-1230.4
20
40.6846
11
-1231.78
21
40.6606
62
8
0
LINE
8
Undeflected
10
-1231.78
20
40.6606
11
-1231.59
21
40.6638
62
9
0
LINE
8
Undeflected
10
-1231.78
20
40.6606
11
-1232.05
21
40.4523
62
10
0
LINE
8
Undeflected
10
-1232.05
20
40.4523
11
-1232.07
21
40.3603
62
1
0
LINE
8
Undeflected
10
-1231.56
20
40.6644
11
-1231.78
21
40.6606
62
2
0
LINE
8
Undeflected
10
-1231.88
20
40.3603
11
-1232.08
21
40.3603
62
3
0
LINE
8
Undeflected
10
-1232.08
20
40.3603
11
-1232.07
21
40.3603
62
4
0
LINE
8
Undeflected
10
-1231.78
20
40.6606
11
-1232.05
21
40.4876
62
5
0
LINE
8
Undeflected
10
-1232.05
20
40.4876
11
-1232.08
21
40.3603
62
6
0
LINE
8
Undeflected
10
-1232.07
20
40.3603
11
-1232.07
21
39.0237
62
7
0
LINE
8
Undeflected
10
-1231.88
20
39.0237
11
-1232.08
21
39.0237
62
8
0
LINE
8
Undeflected
10
-1232.08
20
39.0237
11
-1232.07
21
39.0237
62
9
0
LINE
8
Undeflected
10
-1232.08
20
40.3603
11
-1232.08
21
39.0237
62
10
0
LINE
8
Undeflected
10
-1232.08
20
38.8771
11
-1232.09
21
38.8791
62
1
0
LINE
8
Undeflected
10
-1232.09
20
38.8791
11
-1231.93
21
38.8531
62
2
0
LINE
8
Undeflected
10
-1232.08
20
38.8771
11
-1232.16
21
38.3828
62
3
0
LINE
8
Undeflected
10
-1232.16
20
38.3828
11
-1232.24
21
37.9117
62
4
0
LINE
8
Undeflected
10
-1232.24
20
37.9117
11
-1232.31
21
37.4543
62
5
0
LINE
8
Undeflected
10
-1232.31
20
37.4543
11
-1232.39
21
36.9606
62
6
0
LINE
8
Undeflected
10
-1232.39
20
36.9606
11
-1232.47
21
36.4207
62
7
0
LINE
8
Undeflected
10
-1232.27
20
36.3918
11
-1232.47
21
36.421
62
8
0
LINE
8
Undeflected
10
-1232.47
20
36.4214
11
-1232.47
21
36.4209
62
9
0
LINE
8
Undeflected
10
-1232.09
20
38.8791
11
-1232.17
21
38.3878
62
10
0
LINE
8
Undeflected
10
-1232.17
20
38.3878
11
-1232.25
21
37.8963
62
1
0
LINE
8
Undeflected
10
-1232.25
20
37.8963
11
-1232.32
21
37.4047
62
2
0
LINE
8
Undeflected
10
-1232.32
20
37.4047
11
-1232.4
21
36.9131
62
3
0
LINE
8
Undeflected
10
-1232.4
20
36.9131
11
-1232.47
21
36.4214
62
4
0
LINE
8
Undeflected
10
-1232.01
20
38.8771
11
-1232.08
21
38.8771
62
5
0
LINE
8
Undeflected
10
-1231.89
20
38.8771
11
-1231.99
21
38.8771
62
6
0
LINE
8
Undeflected
10
-1229.52
20
41.5844
11
-1229.59
21
41.234
62
7
0
LINE
8
Undeflected
10
-1229.59
20
41.234
11
-1229.79
21
40.9388
62
8
0
LINE
8
Undeflected
10
-1229.79
20
40.9388
11
-1230.09
21
40.7456
62
9
0
LINE
8
Undeflected
10
-1230.09
20
40.7456
11
-1230.36
21
40.6867
62
10
0
LINE
8
Undeflected
10
-1229.52
20
43.75
11
-1229.33
21
43.9495
62
1
0
LINE
8
Undeflected
10
-1198.88
20
43.6813
11
-1198.02
21
38.2676
62
2
0
LINE
8
Undeflected
10
-1198.88
20
43.6813
11
-1198.89
21
43.7813
62
3
0
LINE
8
Undeflected
10
-1198.89
20
43.7813
11
-1198.88
21
43.6813
62
4
0
LINE
8
Undeflected
10
-1198.65
20
42.2593
11
-1198.88
21
43.6813
62
5
0
LINE
8
Undeflected
10
-1198.65
20
42.2593
11
-1198.69
21
42.5269
62
6
0
LINE
8
Undeflected
10
-1198.69
20
42.5269
11
-1198.7
21
42.5589
62
7
0
LINE
8
Undeflected
10
-1198.7
20
42.5589
11
-1198.67
21
42.3523
62
8
0
LINE
8
Undeflected
10
-1198.67
20
42.3523
11
-1198.65
21
42.2593
62
9
0
LINE
8
Undeflected
10
-1198.02
20
38.2676
11
-1198.65
21
42.2593
62
10
0
LINE
8
Undeflected
10
-1198.65
20
42.2593
11
-1198.69
21
42.5269
62
1
0
LINE
8
Undeflected
10
-1198.69
20
42.5269
11
-1198.7
21
42.5589
62
2
0
LINE
8
Undeflected
10
-1198.7
20
42.5589
11
-1198.67
21
42.3523
62
3
0
LINE
8
Undeflected
10
-1198.67
20
42.3523
11
-1198.65
21
42.2593
62
4
0
LINE
8
Undeflected
10
-1198.65
20
42.2593
11
-1198.69
21
42.5269
62
5
0
LINE
8
Undeflected
10
-1198.69
20
42.5269
11
-1198.7
21
42.5589
62
6
0
LINE
8
Undeflected
10
-1198.7
20
42.5589
11
-1198.67
21
42.3522
62
7
0
LINE
8
Undeflected
10
-1198.67
20
42.3522
11
-1198.65
21
42.2593
62
8
0
LINE
8
Undeflected
10
-1198.65
20
42.2593
11
-1198.02
21
38.2676
62
9
0
LINE
8
Undeflected
10
-1198.02
20
38.2676
11
-1198.22
21
38.2519
62
10
0
LINE
8
Undeflected
10
-1199.07
20
43.65
11
-1198.88
21
43.6812
62
1
0
LINE
8
Undeflected
10
-1198.02
20
18.7121
11
-1198.21
21
18.7121
62
2
0
LINE
8
Undeflected
10
-1198.02
20
38.2676
11
-1198.02
21
18.7121
62
3
0
LINE
8
Undeflected
10
-1198.02
20
38.2676
11
-1198.02
21
37.1517
62
4
0
LINE
8
Undeflected
10
-1198.02
20
37.1517
11
-1198.02
21
36.8664
62
5
0
LINE
8
Undeflected
10
-1198.02
20
36.8664
11
-1198.02
21
36.8517
62
6
0
LINE
8
Undeflected
10
-1198.02
20
36.8517
11
-1198.02
21
37.0586
62
7
0
LINE
8
Undeflected
10
-1198.02
20
37.0586
11
-1198.02
21
37.1517
62
8
0
LINE
8
Undeflected
10
-1198.02
20
38.2676
11
-1198.02
21
37.1679
62
9
0
LINE
8
Undeflected
10
-1198.02
20
37.1679
11
-1198.02
21
37.1517
62
10
0
LINE
8
Undeflected
10
-1198.02
20
38.2676
11
-1198.02
21
37.1517
62
1
0
LINE
8
Undeflected
10
-1198.02
20
37.1517
11
-1198.02
21
36.8664
62
2
0
LINE
8
Undeflected
10
-1198.02
20
36.8664
11
-1198.02
21
36.8517
62
3
0
LINE
8
Undeflected
10
-1198.02
20
36.8517
11
-1198.02
21
37.0586
62
4
0
LINE
8
Undeflected
10
-1198.02
20
37.0586
11
-1198.02
21
37.1517
62
5
0
LINE
8
Undeflected
10
-1198.02
20
37.1517
11
-1198.02
21
38.2676
62
6
0
LINE
8
Undeflected
10
-1198.02
20
38.2676
11
-1198.02
21
37.1517
62
7
0
LINE
8
Undeflected
10
-1198.02
20
37.1517
11
-1198.02
21
36.8664
62
8
0
LINE
8
Undeflected
10
-1198.02
20
36.8664
11
-1198.02
21
36.8517
62
9
0
LINE
8
Undeflected
10
-1198.02
20
36.8517
11
-1198.02
21
37.0586
62
10
0
LINE
8
Undeflected
10
-1198.02
20
37.0586
11
-1198.02
21
37.1517
62
1
0
LINE
8
Undeflected
10
-1198.02
20
37.1517
11
-1198.02
21
38.2676
62
2
0
LINE
8
Undeflected
10
-1198.02
20
37.1678
11
-1198.02
21
38.2676
62
3
0
LINE
8
Undeflected
10
-1198.02
20
37.1517
11
-1198.02
21
36.8664
62
4
0
LINE
8
Undeflected
10
-1198.02
20
36.8664
11
-1198.02
21
36.8517
62
5
0
LINE
8
Undeflected
10
-1198.02
20
36.8517
11
-1198.02
21
37.0586
62
6
0
LINE
8
Undeflected
10
-1198.02
20
37.0586
11
-1198.02
21
37.1517
62
7
0
LINE
8
Undeflected
10
-1198.02
20
37.1517
11
-1198.02
21
38.2676
62
8
0
LINE
8
Undeflected
10
-1198.02
20
19.7017
11
-1198.02
21
31
62
9
0
LINE
8
Undeflected
10
-1198.02
20
34
11
-1198.02
21
37.1517
62
10
0
LINE
8
Undeflected
10
-1198.02
20
18.7121
11
-1198.02
21
18.6622
62
1
0
LINE
8
Undeflected
10
-1198.02
20
18.6622
11
-1198.02
21
18.57
62
2
0
LINE
8
Undeflected
10
-1198.02
20
14.6519
11
-1198.02
21
14.5522
62
3
0
LINE
8
Undeflected
10
-1198.02
20
14.5096
11
-1198.02
21
14.4096
62
4
0
LINE
8
Undeflected
10
-1198.02
20
14.4096
11
-1198.02
21
14.5096
62
5
0
LINE
8
Undeflected
10
-1198.02
20
14.5096
11
-1198.02
21
18.55
62
6
0
LINE
8
Undeflected
10
-1198.02
20
14.5096
11
-1198.02
21
14.4096
62
7
0
LINE
8
Undeflected
10
-1198.02
20
14.4096
11
-1198.02
21
14.5519
62
8
0
LINE
8
Undeflected
10
-1198.02
20
14.5519
11
-1198.02
21
14.6466
62
9
0
LINE
8
Undeflected
10
-1198.02
20
14.6519
11
-1198.02
21
18.1623
62
10
0
LINE
8
Undeflected
10
-1198.02
20
18.1623
11
-1198.02
21
18.4844
62
1
0
LINE
8
Undeflected
10
-1198.02
20
18.4844
11
-1198.02
21
18.655
62
2
0
LINE
8
Undeflected
10
-1198.02
20
18.655
11
-1198.02
21
18.661
62
3
0
LINE
8
Undeflected
10
-1198.02
20
18.6622
11
-1198.02
21
18.7121
62
4
0
LINE
8
Undeflected
10
-1198.02
20
36.0483
11
-1198.02
21
35.8414
62
5
0
LINE
8
Undeflected
10
-1198.02
20
35.8414
11
-1198.02
21
35.7483
62
6
0
LINE
8
Undeflected
10
-1198.02
20
35.7483
11
-1198.02
21
34
62
7
0
LINE
8
Undeflected
10
-1198.02
20
31
11
-1198.02
21
20.0017
62
8
0
LINE
8
Undeflected
10
-1198.02
20
20.0017
11
-1198.02
21
19.7164
62
9
0
LINE
8
Undeflected
10
-1198.02
20
19.7164
11
-1198.02
21
19.7017
62
10
0
LINE
8
Undeflected
10
-1198.02
20
18.7121
11
-1198.02
21
18.6622
62
1
0
LINE
8
Undeflected
10
-1198.02
20
19.7017
11
-1198.02
21
19.9086
62
2
0
LINE
8
Undeflected
10
-1198.02
20
19.9086
11
-1198.02
21
20.0017
62
3
0
LINE
8
Undeflected
10
-1198.02
20
20.0017
11
-1198.02
21
31
62
4
0
LINE
8
Undeflected
10
-1198.02
20
34
11
-1198.02
21
35.7483
62
5
0
LINE
8
Undeflected
10
-1198.02
20
35.7483
11
-1198.02
21
36.0336
62
6
0
LINE
8
Undeflected
10
-1198.02
20
36.0336
11
-1198.02
21
36.0483
62
7
0
LINE
8
Undeflected
10
-1198.02
20
31
11
-1198.02
21
20.0017
62
8
0
LINE
8
Undeflected
10
-1198.02
20
20.0017
11
-1198.02
21
19.7164
62
9
0
LINE
8
Undeflected
10
-1198.02
20
19.7164
11
-1198.02
21
19.7017
62
10
0
LINE
8
Undeflected
10
-1198.02
20
19.7017
11
-1198.02
21
19.9086
62
1
0
LINE
8
Undeflected
10
-1198.02
20
19.9086
11
-1198.02
21
20.0017
62
2
0
LINE
8
Undeflected
10
-1198.02
20
20.0017
11
-1198.02
21
31
62
3
0
LINE
8
Undeflected
10
-1198.02
20
34
11
-1198.02
21
35.7483
62
4
0
LINE
8
Undeflected
10
-1198.02
20
35.7483
11
-1198.02
21
36.0336
62
5
0
LINE
8
Undeflected
10
-1198.02
20
36.0336
11
-1198.02
21
36.0483
62
6
0
LINE
8
Undeflected
10
-1198.02
20
36.0483
11
-1198.02
21
35.8414
62
7
0
LINE
8
Undeflected
10
-1198.02
20
35.8414
11
-1198.02
21
35.7483
62
8
0
LINE
8
Undeflected
10
-1198.02
20
35.7483
11
-1198.02
21
34
62
9
0
LINE
8
Undeflected
10
-1198.02
20
34
11
-1198.02
21
35.7483
62
10
0
LINE
8
Undeflected
10
-1198.02
20
35.7483
11
-1198.02
21
36.0336
62
1
0
LINE
8
Undeflected
10
-1198.02
20
36.0336
11
-1198.02
21
36.0483
62
2
0
LINE
8
Undeflected
10
-1198.02
20
36.0483
11
-1198.02
21
35.8414
62
3
0
LINE
8
Undeflected
10
-1198.02
20
35.8414
11
-1198.02
21
35.7483
62
4
0
LINE
8
Undeflected
10
-1198.02
20
35.7483
11
-1198.02
21
20.0017
62
5
0
LINE
8
Undeflected
10
-1198.02
20
20.0017
11
-1198.02
21
19.7164
62
6
0
LINE
8
Undeflected
10
-1198.02
20
19.7164
11
-1198.02
21
19.7017
62
7
0
LINE
8
Undeflected
10
-1198.02
20
19.7017
11
-1198.02
21
19.6307
62
8
0
LINE
8
Undeflected
10
-1198.02
20
19.6307
11
-1198.02
21
19.4289
62
9
0
LINE
8
Undeflected
10
-1198.02
20
19.4289
11
-1198.02
21
19.128
62
10
0
LINE
8
Undeflected
10
-1198.02
20
19.128
11
-1198.02
21
18.8656
62
1
0
LINE
8
Undeflected
10
-1198.02
20
18.8019
11
-1198.02
21
16.1017
62
2
0
LINE
8
Undeflected
10
-1198.02
20
16.1017
11
-1198.02
21
15.778
62
3
0
LINE
8
Undeflected
10
-1198.02
20
15.778
11
-1198.02
21
15.7017
62
4
0
LINE
8
Undeflected
10
-1198.02
20
15.7017
11
-1198.02
21
15.8669
62
5
0
LINE
8
Undeflected
10
-1198.02
20
15.8669
11
-1198.02
21
16.1017
62
6
0
LINE
8
Undeflected
10
-1198.02
20
16.1017
11
-1198.02
21
18.8019
62
7
0
LINE
8
Undeflected
10
-1198.02
20
18.8019
11
-1198.02
21
19.1523
62
8
0
LINE
8
Undeflected
10
-1198.02
20
19.1523
11
-1198.02
21
19.4474
62
9
0
LINE
8
Undeflected
10
-1198.02
20
19.4474
11
-1198.02
21
19.6406
62
10
0
LINE
8
Undeflected
10
-1198.02
20
19.6406
11
-1198.02
21
19.6995
62
1
0
LINE
8
Undeflected
10
-1198.02
20
19.7017
11
-1198.02
21
19.9086
62
2
0
LINE
8
Undeflected
10
-1198.02
20
19.9086
11
-1198.02
21
20.0017
62
3
0
LINE
8
Undeflected
10
-1198.02
20
20.0017
11
-1198.02
21
31
62
4
0
LINE
8
Undeflected
10
-1198.02
20
34
11
-1198.02
21
31
62
5
0
LINE
8
Undeflected
10
-1198.02
20
38.2676
11
-1198.02
21
37.1679
62
6
0
LINE
8
Undeflected
10
-1198.02
20
38.2676
11
-1198.12
21
38.2598
62
7
0
LINE
8
Undeflected
10
-1205.93
20
43.95
11
-1205.94
21
43.95
62
8
0
LINE
8
Undeflected
10
-1198.02
20
38.2676
11
-1198.12
21
38.2598
62
9
0
LINE
8
Undeflected
10
-1198.06
20
38.2645
11
-1198.12
21
38.2599
62
10
0
LINE
8
Undeflected
10
-1202.71
20
-19.7882
11
-1202.76
21
-19.7525
62
1
0
LINE
8
Undeflected
10
-1202.86
20
-19.643
11
-1202.91
21
-19.4653
62
2
0
LINE
8
Undeflected
10
-1211.31
20
-5.69354
11
-1211.32
21
-5.69277
62
3
0
LINE
8
Undeflected
10
-1212.13
20
-4.19654
11
-1211.88
21
-4.02401
62
4
0
LINE
8
Undeflected
10
-1211.59
20
-3.8738
11
-1211.35
21
-3.81081
62
5
0
LINE
8
Undeflected
10
-1211.31
20
-3.80645
11
-1211.26
21
-3.80369
62
6
0
LINE
8
Undeflected
10
-1204.28
20
-5.2966
11
-1204.28
21
-4.2034
62
7
0
LINE
8
Undeflected
10
-1211.31
20
-3.19354
11
-1211.32
21
-3.19277
62
8
0
LINE
8
Undeflected
10
-1211.31
20
-1.30645
11
-1211.26
21
-1.30369
62
9
0
LINE
8
Undeflected
10
-1204.28
20
-2.7966
11
-1204.28
21
-1.7034
62
10
0
LINE
8
Undeflected
10
-1211.31
20
-0.693541
11
-1211.32
21
-0.692773
62
1
0
LINE
8
Undeflected
10
-1211.31
20
1.19355
11
-1211.26
21
1.19631
62
2
0
LINE
8
Undeflected
10
-1204.68
20
1.19654
11
-1204.36
21
1.03196
62
3
0
LINE
8
Undeflected
10
-1204.36
20
1.03196
11
-1204.28
21
0.796599
62
4
0
LINE
8
Undeflected
10
-1204.28
20
-0.296599
11
-1204.28
21
0.796598
62
5
0
LINE
8
Undeflected
10
-1211.31
20
1.80647
11
-1211.32
21
1.80724
62
6
0
LINE
8
Undeflected
10
-1211.59
20
1.8738
11
-1211.83
21
1.99542
62
7
0
LINE
8
Undeflected
10
-1211.31
20
3.69355
11
-1211.26
21
3.69631
62
8
0
LINE
8
Undeflected
10
-1204.68
20
3.69654
11
-1204.36
21
3.53196
62
9
0
LINE
8
Undeflected
10
-1204.36
20
3.53196
11
-1204.28
21
3.2966
62
10
0
LINE
8
Undeflected
10
-1204.28
20
2.2034
11
-1204.28
21
3.2966
62
1
0
LINE
8
Undeflected
10
-1204.68
20
4.30346
11
-1217.07
21
4.30346
62
2
0
LINE
8
Undeflected
10
-1217.47
20
6.24024
11
-1217.3
21
6.56348
62
3
0
LINE
8
Undeflected
10
-1217.3
20
6.56348
11
-1217.13
21
6.63507
62
4
0
LINE
8
Undeflected
10
-1204.68
20
6.64018
11
-1204.36
21
6.4756
62
5
0
LINE
8
Undeflected
10
-1204.36
20
6.4756
11
-1204.28
21
6.30489
62
6
0
LINE
8
Undeflected
10
-1204.28
20
4.7034
11
-1204.28
21
6.24024
62
7
0
LINE
8
Undeflected
10
-1204.68
20
-8.64018
11
-1217.07
21
-8.64018
62
8
0
LINE
8
Undeflected
10
-1217.47
20
-6.7034
11
-1217.3
21
-6.38016
62
9
0
LINE
8
Undeflected
10
-1217.3
20
-6.38016
11
-1217.13
21
-6.30856
62
10
0
LINE
8
Undeflected
10
-1204.28
20
-8.24024
11
-1204.28
21
-6.7034
62
1
0
LINE
8
Undeflected
10
-1229.52
20
43.65
11
-1229.52
21
42.5805
62
2
0
LINE
8
Undeflected
10
-1229.52
20
43.0983
11
-1229.52
21
42.9354
62
3
0
LINE
8
Undeflected
10
-1229.52
20
42.9354
11
-1229.52
21
42.6994
62
4
0
LINE
8
Undeflected
10
-1235.12
20
-38.05
11
-1235.08
21
-38.1644
62
5
0
LINE
8
Undeflected
10
-1235.08
20
-38.1663
11
-1235.12
21
-38.0541
62
6
0
LINE
8
Undeflected
10
-1232.36
20
-38.4046
11
-1232.42
21
-38.413
62
7
0
LINE
8
Undeflected
10
-1198.02
20
-45.75
11
-1198.02
21
-45.6571
62
8
0
LINE
8
Undeflected
10
-1198.02
20
-45.65
11
-1198.02
21
-45.7497
62
9
0
LINE
8
Undeflected
10
-1198.02
20
-19.6422
11
-1198.02
21
-45.65
62
10
0
LINE
8
Undeflected
10
-1198.02
20
-19.4082
11
-1198.02
21
-19.6054
62
1
0
LINE
8
Undeflected
10
-1198.02
20
-19.7
11
-1198.02
21
-19.6663
62
2
0
LINE
8
Undeflected
10
-1198.02
20
-19.6082
11
-1198.02
21
-19.4369
62
3
0
LINE
8
Undeflected
10
-1198.02
20
-19.7
11
-1198.02
21
-19.7
62
4
0
LINE
8
Undeflected
10
-1198.02
20
-19.4082
11
-1198.02
21
-19.6082
62
5
0
LINE
8
Undeflected
10
-1198.02
20
-19.6422
11
-1198.02
21
-19.7
62
6
0
LINE
8
Undeflected
10
-1198.02
20
-19.7
11
-1198.02
21
-19.6422
62
7
0
LINE
8
Undeflected
10
-1198.02
20
-19.6082
11
-1198.02
21
-19.4082
62
8
0
LINE
8
Undeflected
10
-1198.02
20
-19.7
11
-1198.02
21
-19.7
62
9
0
LINE
8
Undeflected
10
-1198.02
20
-19.4082
11
-1198.02
21
-19.58
62
10
0
LINE
8
Undeflected
10
-1198.02
20
-19.6422
11
-1198.02
21
-19.6756
62
1
0
LINE
8
Undeflected
10
-1198.02
20
-19.2567
11
-1198.02
21
-19.3846
62
2
0
LINE
8
Undeflected
10
-1198.02
20
-19.4082
11
-1198.02
21
-19.3846
62
3
0
LINE
8
Undeflected
10
-1198.02
20
-19.6082
11
-1198.02
21
-19.4201
62
4
0
LINE
8
Undeflected
10
-1198.02
20
-19.6422
11
-1198.02
21
-19.6082
62
5
0
LINE
8
Undeflected
10
-1198.02
20
-45.65
11
-1198.02
21
-19.6422
62
6
0
LINE
8
Undeflected
10
-1198.02
20
-20.9017
11
-1198.02
21
-20.9017
62
7
0
LINE
8
Undeflected
10
-1198.02
20
-20.9017
11
-1198.02
21
-21.1086
62
8
0
LINE
8
Undeflected
10
-1198.02
20
-21.1086
11
-1198.02
21
-21.2017
62
9
0
LINE
8
Undeflected
10
-1198.02
20
-21.2017
11
-1198.02
21
-22.1
62
10
0
LINE
8
Undeflected
10
-1198.02
20
-25.1
11
-1198.02
21
-37.7483
62
1
0
LINE
8
Undeflected
10
-1198.02
20
-37.7483
11
-1198.02
21
-38.0336
62
2
0
LINE
8
Undeflected
10
-1198.02
20
-38.0336
11
-1198.02
21
-38.0483
62
3
0
LINE
8
Undeflected
10
-1198.02
20
-38.0483
11
-1198.02
21
-37.8414
62
4
0
LINE
8
Undeflected
10
-1198.02
20
-37.8414
11
-1198.02
21
-37.7483
62
5
0
LINE
8
Undeflected
10
-1198.02
20
-37.7483
11
-1198.02
21
-25.1
62
6
0
LINE
8
Undeflected
10
-1198.02
20
-22.1
11
-1198.02
21
-21.2017
62
7
0
LINE
8
Undeflected
10
-1198.02
20
-21.2017
11
-1198.02
21
-20.9164
62
8
0
LINE
8
Undeflected
10
-1198.02
20
-20.9164
11
-1198.02
21
-20.9017
62
9
0
LINE
8
Undeflected
10
-1198.02
20
-20.9017
11
-1198.02
21
-20.9017
62
10
0
LINE
8
Undeflected
10
-1198.02
20
-20.9017
11
-1198.02
21
-21.1
62
1
0
LINE
8
Undeflected
10
-1198.02
20
-21.1
11
-1198.02
21
-20.9017
62
2
0
LINE
8
Undeflected
10
-1198.02
20
-37.7483
11
-1198.02
21
-38.0336
62
3
0
LINE
8
Undeflected
10
-1198.02
20
-38.0336
11
-1198.02
21
-38.0483
62
4
0
LINE
8
Undeflected
10
-1198.02
20
-38.0483
11
-1198.02
21
-37.8414
62
5
0
LINE
8
Undeflected
10
-1198.02
20
-37.8414
11
-1198.02
21
-37.7483
62
6
0
LINE
8
Undeflected
10
-1198.02
20
-37.7483
11
-1198.02
21
-25.1
62
7
0
LINE
8
Undeflected
10
-1198.02
20
-22.1
11
-1198.02
21
-21.2017
62
8
0
LINE
8
Undeflected
10
-1198.02
20
-21.2017
11
-1198.02
21
-20.9164
62
9
0
LINE
8
Undeflected
10
-1198.02
20
-20.9164
11
-1198.02
21
-20.9017
62
10
0
LINE
8
Undeflected
10
-1198.02
20
-20.9017
11
-1198.02
21
-21.1086
62
1
0
LINE
8
Undeflected
10
-1198.02
20
-21.1086
11
-1198.02
21
-21.2017
62
2
0
LINE
8
Undeflected
10
-1198.02
20
-21.2017
11
-1198.02
21
-22.1
62
3
0
LINE
8
Undeflected
10
-1198.02
20
-25.1
11
-1198.02
21
-37.7483
62
4
0
LINE
8
Undeflected
10
-1198.02
20
-22.1
11
-1198.02
21
-21.2017
62
5
0
LINE
8
Undeflected
10
-1198.02
20
-21.2017
11
-1198.02
21
-20.9164
62
6
0
LINE
8
Undeflected
10
-1198.02
20
-20.9164
11
-1198.02
21
-20.9017
62
7
0
LINE
8
Undeflected
10
-1198.02
20
-20.9017
11
-1198.02
21
-21.1086
62
8
0
LINE
8
Undeflected
10
-1198.02
20
-21.1086
11
-1198.02
21
-21.2017
62
9
0
LINE
8
Undeflected
10
-1198.02
20
-21.2017
11
-1198.02
21
-37.7483
62
10
0
LINE
8
Undeflected
10
-1198.02
20
-37.7483
11
-1198.02
21
-38.0336
62
1
0
LINE
8
Undeflected
10
-1198.02
20
-38.0336
11
-1198.02
21
-38.0483
62
2
0
LINE
8
Undeflected
10
-1198.02
20
-38.0483
11
-1198.02
21
-37.8414
62
3
0
LINE
8
Undeflected
10
-1198.02
20
-37.8414
11
-1198.02
21
-37.7483
62
4
0
LINE
8
Undeflected
10
-1198.02
20
-37.7483
11
-1198.02
21
-25.1
62
5
0
LINE
8
Undeflected
10
-1198.02
20
-22.1
11
-1198.02
21
-25.1
62
6
0
LINE
8
Undeflected
10
-1198.02
20
-44.2492
11
-1198.02
21
-39.1517
62
7
0
LINE
8
Undeflected
10
-1198.02
20
-39.1517
11
-1198.02
21
-38.8667
62
8
0
LINE
8
Undeflected
10
-1198.02
20
-38.8667
11
-1198.02
21
-38.8517
62
9
0
LINE
8
Undeflected
10
-1198.02
20
-38.8517
11
-1198.02
21
-39.0577
62
10
0
LINE
8
Undeflected
10
-1198.02
20
-39.0577
11
-1198.02
21
-39.1517
62
1
0
LINE
8
Undeflected
10
-1198.02
20
-39.1517
11
-1198.02
21
-44.2492
62
2
0
LINE
8
Undeflected
10
-1198.02
20
-44.2492
11
-1198.02
21
-44.5341
62
3
0
LINE
8
Undeflected
10
-1198.02
20
-44.5341
11
-1198.02
21
-44.5491
62
4
0
LINE
8
Undeflected
10
-1198.02
20
-44.5491
11
-1198.02
21
-44.3431
62
5
0
LINE
8
Undeflected
10
-1198.02
20
-44.3431
11
-1198.02
21
-44.2492
62
6
0
LINE
8
Undeflected
10
-1198.02
20
-44.2492
11
-1198.02
21
-39.1517
62
7
0
LINE
8
Undeflected
10
-1198.02
20
-39.1517
11
-1198.02
21
-38.8667
62
8
0
LINE
8
Undeflected
10
-1198.02
20
-38.8667
11
-1198.02
21
-38.8517
62
9
0
LINE
8
Undeflected
10
-1198.02
20
-38.8517
11
-1198.02
21
-39.0577
62
10
0
LINE
8
Undeflected
10
-1198.02
20
-39.0577
11
-1198.02
21
-39.1517
62
1
0
LINE
8
Undeflected
10
-1198.02
20
-39.1517
11
-1198.02
21
-44.2492
62
2
0
LINE
8
Undeflected
10
-1198.02
20
-44.2492
11
-1198.02
21
-44.5341
62
3
0
LINE
8
Undeflected
10
-1198.02
20
-44.5341
11
-1198.02
21
-44.5491
62
4
0
LINE
8
Undeflected
10
-1198.02
20
-44.5491
11
-1198.02
21
-44.3431
62
5
0
LINE
8
Undeflected
10
-1198.02
20
-44.3431
11
-1198.02
21
-44.2492
62
6
0
LINE
8
Undeflected
10
-1198.02
20
-44.5491
11
-1198.02
21
-44.3431
62
7
0
LINE
8
Undeflected
10
-1198.02
20
-44.3431
11
-1198.02
21
-44.2492
62
8
0
LINE
8
Undeflected
10
-1198.02
20
-44.2492
11
-1198.02
21
-39.1517
62
9
0
LINE
8
Undeflected
10
-1198.02
20
-39.1517
11
-1198.02
21
-38.8667
62
10
0
LINE
8
Undeflected
10
-1198.02
20
-38.8667
11
-1198.02
21
-38.8517
62
1
0
LINE
8
Undeflected
10
-1198.02
20
-38.8517
11
-1198.02
21
-39.0577
62
2
0
LINE
8
Undeflected
10
-1198.02
20
-39.0577
11
-1198.02
21
-39.1517
62
3
0
LINE
8
Undeflected
10
-1198.02
20
-39.1517
11
-1198.02
21
-44.2492
62
4
0
LINE
8
Undeflected
10
-1198.02
20
-44.2492
11
-1198.02
21
-44.5341
62
5
0
LINE
8
Undeflected
10
-1198.02
20
-44.5341
11
-1198.02
21
-44.5491
62
6
0
LINE
8
Undeflected
10
-1198.02
20
-44.5491
11
-1198.02
21
-44.3431
62
7
0
LINE
8
Undeflected
10
-1198.02
20
-44.3431
11
-1198.02
21
-44.2492
62
8
0
LINE
8
Undeflected
10
-1198.02
20
-44.2492
11
-1198.02
21
-39.1517
62
9
0
LINE
8
Undeflected
10
-1198.02
20
-39.1517
11
-1198.02
21
-38.8667
62
10
0
LINE
8
Undeflected
10
-1198.02
20
-38.8667
11
-1198.02
21
-38.8517
62
1
0
LINE
8
Undeflected
10
-1198.02
20
-38.8517
11
-1198.02
21
-39.0577
62
2
0
LINE
8
Undeflected
10
-1198.02
20
-39.0577
11
-1198.02
21
-39.1517
62
3
0
LINE
8
Undeflected
10
-1198.02
20
-39.1517
11
-1198.02
21
-44.2492
62
4
0
LINE
8
Undeflected
10
-1198.02
20
-44.2492
11
-1198.02
21
-44.5341
62
5
0
LINE
8
Undeflected
10
-1198.02
20
-44.5341
11
-1198.02
21
-44.5491
62
6
0
LINE
8
Undeflected
10
-1198.02
20
-19.6422
11
-1198.22
21
-19.8423
62
7
0
LINE
8
Undeflected
10
-1198.02
20
-45.65
11
-1198.21
21
-45.65
62
8
0
LINE
8
Undeflected
10
-1198.02
20
-19.6422
11
-1202.51
21
-19.6423
62
9
0
LINE
8
Undeflected
10
-1202.51
20
-19.8423
11
-1202.51
21
-19.6423
62
10
0
LINE
8
Undeflected
10
-1202.71
20
-19.4424
11
-1202.71
21
-15.0728
62
1
0
LINE
8
Undeflected
10
-1202.91
20
-14.8726
11
-1202.72
21
-15.0691
62
2
0
LINE
8
Undeflected
10
-1202.72
20
-15.0691
11
-1202.71
21
-15.0728
62
3
0
LINE
8
Undeflected
10
-1202.71
20
-19.4424
11
-1202.91
21
-19.4423
62
4
0
LINE
8
Undeflected
10
-1202.71
20
-15.0728
11
-1202.57
21
-15.4876
62
5
0
LINE
8
Undeflected
10
-1202.68
20
-19.4082
11
-1202.71
21
-19.4424
62
6
0
LINE
8
Undeflected
10
-1202.68
20
-18.4582
11
-1202.68
21
-19.4082
62
7
0
LINE
8
Undeflected
10
-1202.57
20
-18.3459
11
-1202.68
21
-18.4582
62
8
0
LINE
8
Undeflected
10
-1202.57
20
-15.987
11
-1202.57
21
-18.3459
62
9
0
LINE
8
Undeflected
10
-1202.57
20
-15.4876
11
-1202.57
21
-15.6429
62
10
0
LINE
8
Undeflected
10
-1202.57
20
-15.6429
11
-1202.57
21
-15.987
62
1
0
LINE
8
Undeflected
10
-1202.52
20
-15.0731
11
-1202.72
21
-14.8726
62
2
0
LINE
8
Undeflected
10
-1202.52
20
-15.0731
11
-1202.52
21
12.237
62
3
0
LINE
8
Undeflected
10
-1202.52
20
12.2355
11
-1202.52
21
12.237
62
4
0
LINE
8
Undeflected
10
-1202.52
20
12.2355
11
-1202.72
21
12.0362
62
5
0
LINE
8
Undeflected
10
-1202.52
20
-18.4734
11
-1202.52
21
-15.9868
62
6
0
LINE
8
Undeflected
10
-1202.52
20
-15.9868
11
-1202.52
21
-15.6428
62
7
0
LINE
8
Undeflected
10
-1202.52
20
-15.6428
11
-1202.52
21
-15.4875
62
8
0
LINE
8
Undeflected
10
-1202.52
20
-15.4875
11
-1202.52
21
-15.0731
62
9
0
LINE
8
Undeflected
10
-1202.52
20
12.237
11
-1202.52
21
13.2579
62
10
0
LINE
8
Undeflected
10
-1202.52
20
13.2579
11
-1202.52
21
13.4184
62
1
0
LINE
8
Undeflected
10
-1202.52
20
13.4184
11
-1202.52
21
13.7561
62
2
0
LINE
8
Undeflected
10
-1202.52
20
13.7561
11
-1202.52
21
13.9
62
3
0
LINE
8
Undeflected
10
-1202.52
20
13.9
11
-1202.52
21
13.7561
62
4
0
LINE
8
Undeflected
10
-1202.52
20
13.7561
11
-1202.52
21
13.4184
62
5
0
LINE
8
Undeflected
10
-1202.52
20
13.4184
11
-1202.52
21
13.2579
62
6
0
LINE
8
Undeflected
10
-1202.52
20
13.2579
11
-1202.52
21
12.237
62
7
0
LINE
8
Undeflected
10
-1202.52
20
-15.0731
11
-1202.52
21
-15.4875
62
8
0
LINE
8
Undeflected
10
-1202.52
20
-15.4875
11
-1202.52
21
-15.6427
62
9
0
LINE
8
Undeflected
10
-1202.52
20
-15.6427
11
-1202.52
21
-15.9868
62
10
0
LINE
8
Undeflected
10
-1202.52
20
-15.9868
11
-1202.52
21
-18.4734
62
1
0
LINE
8
Undeflected
10
-1202.52
20
-19.3
11
-1202.52
21
-19.5
62
2
0
LINE
8
Undeflected
10
-1202.52
20
-19.5
11
-1202.52
21
-19.4
62
3
0
LINE
8
Undeflected
10
-1202.52
20
-19.4
11
-1202.52
21
-19.5
62
4
0
LINE
8
Undeflected
10
-1202.52
20
-19.5
11
-1202.52
21
-19.3
62
5
0
LINE
8
Undeflected
10
-1202.52
20
-18.4734
11
-1202.52
21
-19.3
62
6
0
LINE
8
Undeflected
10
-1202.52
20
4
11
-1202.52
21
3.97502
62
7
0
LINE
8
Undeflected
10
-1202.52
20
3.97502
11
-1202.52
21
3.90033
62
8
0
LINE
8
Undeflected
10
-1202.52
20
3.90033
11
-1202.52
21
3.77668
62
9
0
LINE
8
Undeflected
10
-1202.52
20
3.77668
11
-1202.52
21
3.6053
62
10
0
LINE
8
Undeflected
10
-1202.52
20
3.6053
11
-1202.52
21
3.38791
62
1
0
LINE
8
Undeflected
10
-1202.52
20
3.38791
11
-1202.52
21
3.12668
62
2
0
LINE
8
Undeflected
10
-1202.52
20
3.12668
11
-1202.52
21
2.82421
62
3
0
LINE
8
Undeflected
10
-1202.52
20
2.82421
11
-1202.52
21
2.48353
62
4
0
LINE
8
Undeflected
10
-1202.52
20
2.48353
11
-1202.52
21
2.10805
62
5
0
LINE
8
Undeflected
10
-1202.52
20
2.10805
11
-1202.52
21
1.70151
62
6
0
LINE
8
Undeflected
10
-1202.52
20
1.70151
11
-1202.52
21
1.26798
62
7
0
LINE
8
Undeflected
10
-1202.52
20
1.26798
11
-1202.52
21
0.811789
62
8
0
LINE
8
Undeflected
10
-1202.52
20
0.811789
11
-1202.52
21
0.337494
62
9
0
LINE
8
Undeflected
10
-1202.52
20
0.337494
11
-1202.52
21
-0.150164
62
10
0
LINE
8
Undeflected
10
-1202.52
20
-0.150164
11
-1202.52
21
-0.646314
62
1
0
LINE
8
Undeflected
10
-1202.52
20
-0.646314
11
-1202.52
21
-1.146
62
2
0
LINE
8
Undeflected
10
-1202.52
20
-1.146
11
-1202.52
21
-1.64422
62
3
0
LINE
8
Undeflected
10
-1202.52
20
-1.64422
11
-1202.52
21
-2.13601
62
4
0
LINE
8
Undeflected
10
-1202.52
20
-2.13601
11
-1202.52
21
-2.61645
62
5
0
LINE
8
Undeflected
10
-1202.52
20
-2.61645
11
-1202.52
21
-3.08073
62
6
0
LINE
8
Undeflected
10
-1202.52
20
-3.08073
11
-1202.52
21
-3.52423
62
7
0
LINE
8
Undeflected
10
-1202.52
20
-3.52423
11
-1202.52
21
-3.94251
62
8
0
LINE
8
Undeflected
10
-1202.52
20
-3.94251
11
-1202.52
21
-4.33138
62
9
0
LINE
8
Undeflected
10
-1202.52
20
-4.33138
11
-1202.52
21
-4.68697
62
10
0
LINE
8
Undeflected
10
-1202.52
20
-4.68697
11
-1202.52
21
-5.00572
62
1
0
LINE
8
Undeflected
10
-1202.52
20
-5.00572
11
-1202.52
21
-5.28444
62
2
0
LINE
8
Undeflected
10
-1202.52
20
-5.28444
11
-1202.52
21
-5.52036
62
3
0
LINE
8
Undeflected
10
-1202.52
20
-5.52036
11
-1202.52
21
-5.71111
62
4
0
LINE
8
Undeflected
10
-1202.52
20
-5.71111
11
-1202.52
21
-5.85479
62
5
0
LINE
8
Undeflected
10
-1202.52
20
-5.85479
11
-1202.52
21
-5.94996
62
6
0
LINE
8
Undeflected
10
-1202.52
20
-5.94996
11
-1202.52
21
-5.99568
62
7
0
LINE
8
Undeflected
10
-1202.52
20
12.2355
11
-1203.18
21
12.2367
62
8
0
LINE
8
Undeflected
10
-1203.18
20
12.2367
11
-1203.38
21
12.0362
62
9
0
LINE
8
Undeflected
10
-1203.18
20
18.5121
11
-1203.38
21
18.7121
62
10
0
LINE
8
Undeflected
10
-1203.18
20
12.2367
11
-1203.18
21
18.5121
62
1
0
LINE
8
Undeflected
10
-1202.97
20
13.7582
11
-1202.97
21
13.4204
62
2
0
LINE
8
Undeflected
10
-1202.97
20
13.4204
11
-1202.98
21
13.26
62
3
0
LINE
8
Undeflected
10
-1203.18
20
12.2367
11
-1202.98
21
13.26
62
4
0
LINE
8
Undeflected
10
-1202.97
20
18.3
11
-1203.18
21
18.5121
62
5
0
LINE
8
Undeflected
10
-1202.97
20
18.3
11
-1202.97
21
13.7582
62
6
0
LINE
8
Undeflected
10
-1202.52
20
18.357
11
-1202.52
21
18.331
62
7
0
LINE
8
Undeflected
10
-1202.52
20
18.331
11
-1202.32
21
18.3275
62
8
0
LINE
8
Undeflected
10
-1202.32
20
18.3275
11
-1201.49
21
18.3272
62
9
0
LINE
8
Undeflected
10
-1201.52
20
18.3013
11
-1201.49
21
18.3272
62
10
0
LINE
8
Undeflected
10
-1201.52
20
18.3013
11
-1202.97
21
18.3
62
1
0
LINE
8
Undeflected
10
-1198.22
20
18.5121
11
-1203.18
21
18.5121
62
2
0
LINE
8
Undeflected
10
-1198.22
20
18.4622
11
-1198.22
21
18.5121
62
3
0
LINE
8
Undeflected
10
-1198.22
20
18.4622
11
-1201.37
21
18.4622
62
4
0
LINE
8
Undeflected
10
-1201.4
20
18.4299
11
-1201.37
21
18.4622
62
5
0
LINE
8
Undeflected
10
-1202.32
20
18.4296
11
-1201.4
21
18.4299
62
6
0
LINE
8
Undeflected
10
-1202.32
20
18.4296
11
-1202.52
21
18.4261
62
7
0
LINE
8
Undeflected
10
-1202.52
20
18.4261
11
-1202.52
21
18.4001
62
8
0
LINE
8
Undeflected
10
-1202.52
20
18.4001
11
-1202.75
21
18.3915
62
9
0
LINE
8
Undeflected
10
-1202.75
20
18.3915
11
-1202.86
21
18.3829
62
10
0
LINE
8
Undeflected
10
-1202.86
20
18.3829
11
-1202.87
21
18.3785
62
1
0
LINE
8
Undeflected
10
-1202.87
20
18.3785
11
-1202.82
21
18.3699
62
2
0
LINE
8
Undeflected
10
-1202.82
20
18.3699
11
-1202.65
21
18.3613
62
3
0
LINE
8
Undeflected
10
-1202.52
20
18.4001
11
-1202.52
21
18.357
62
4
0
LINE
8
Undeflected
10
-1201.4
20
18.4299
11
-1201.25
21
16.3273
62
5
0
LINE
8
Undeflected
10
-1201.25
20
16.3273
11
-1201.19
21
16.1553
62
6
0
LINE
8
Undeflected
10
-1198.22
20
16.1034
11
-1198.12
21
16.1017
62
7
0
LINE
8
Undeflected
10
-1198.12
20
16.1017
11
-1198.12
21
18.1623
62
8
0
LINE
8
Undeflected
10
-1198.12
20
18.5399
11
-1198.12
21
18.7121
62
9
0
LINE
8
Undeflected
10
-1201.37
20
18.4622
11
-1201.36
21
18.2643
62
10
0
LINE
8
Undeflected
10
-1201.36
20
18.2643
11
-1201.35
21
18.1623
62
1
0
LINE
8
Undeflected
10
-1201.22
20
16.333
11
-1201.35
21
18.1623
62
2
0
LINE
8
Undeflected
10
-1201.25
20
16.3273
11
-1201.22
21
16.333
62
3
0
LINE
8
Undeflected
10
-1198.22
20
18.1623
11
-1198.22
21
18.4419
62
4
0
LINE
8
Undeflected
10
-1198.22
20
18.4419
11
-1198.22
21
18.4615
62
5
0
LINE
8
Undeflected
10
-1198.02
20
18.1623
11
-1198.21
21
18.1623
62
6
0
LINE
8
Undeflected
10
-1198.22
20
18.4622
11
-1198.02
21
18.6481
62
7
0
LINE
8
Undeflected
10
-1198.08
20
18.5707
11
-1198.02
21
18.6951
62
8
0
LINE
8
Undeflected
10
-1198.22
20
18.5121
11
-1198.09
21
18.5592
62
9
0
LINE
8
Undeflected
10
-1198.22
20
18.7127
11
-1198.22
21
18.5127
62
10
0
LINE
8
Undeflected
10
-1198.22
20
14.352
11
-1198.02
21
14.5378
62
1
0
LINE
8
Undeflected
10
-1198.22
20
14.2097
11
-1198.22
21
14.352
62
2
0
LINE
8
Undeflected
10
-1198.02
20
14.4096
11
-1198.21
21
14.2102
62
3
0
LINE
8
Undeflected
10
-1198.21
20
14.5096
11
-1198.02
21
14.5096
62
4
0
LINE
8
Undeflected
10
-1198.21
20
14.5096
11
-1198.21
21
15.8033
62
5
0
LINE
8
Undeflected
10
-1201.52
20
18.25
11
-1201.38
21
16.3003
62
6
0
LINE
8
Undeflected
10
-1200.73
20
14.5073
11
-1201.38
21
16.3003
62
7
0
LINE
8
Undeflected
10
-1198.22
20
14.5096
11
-1198.21
21
14.5096
62
8
0
LINE
8
Undeflected
10
-1201.52
20
18.25
11
-1202.92
21
18.25
62
9
0
LINE
8
Undeflected
10
-1202.92
20
18.25
11
-1201.52
21
18.25
62
10
0
LINE
8
Undeflected
10
-1198.22
20
14.2097
11
-1198.02
21
14.3959
62
1
0
LINE
8
Undeflected
10
-1202.32
20
18.3275
11
-1202.39
21
18.3277
62
2
0
LINE
8
Undeflected
10
-1202.51
20
18.3298
11
-1202.52
21
18.3303
62
3
0
LINE
8
Undeflected
10
-1202.32
20
18.4296
11
-1202.32
21
18.3275
62
4
0
LINE
8
Undeflected
10
-1198.21
20
14.5096
11
-1198.21
21
14.3721
62
5
0
LINE
8
Undeflected
10
-1202.52
20
13.2579
11
-1202.98
21
13.26
62
6
0
LINE
8
Undeflected
10
-1202.98
20
13.26
11
-1203.18
21
12.2364
62
7
0
LINE
8
Undeflected
10
-1203.18
20
12.2364
11
-1202.52
21
12.2355
62
8
0
LINE
8
Undeflected
10
-1202.72
20
-14.8726
11
-1202.52
21
-15.0695
62
9
0
LINE
8
Undeflected
10
-1202.52
20
-15.0695
11
-1202.52
21
-15.0731
62
10
0
LINE
8
Undeflected
10
-1202.71
20
-15.0728
11
-1202.75
21
-15.0329
62
1
0
LINE
8
Undeflected
10
-1202.86
20
-14.9209
11
-1202.9
21
-14.8895
62
2
0
LINE
8
Undeflected
10
-1202.91
20
-19.4423
11
-1202.82
21
-19.4426
62
3
0
LINE
8
Undeflected
10
-1202.74
20
-19.4423
11
-1202.71
21
-19.4424
62
4
0
LINE
8
Undeflected
10
-1202.57
20
-15.987
11
-1202.57
21
-15.7674
62
5
0
LINE
8
Undeflected
10
-1202.57
20
-15.5116
11
-1202.57
21
-15.4937
62
6
0
LINE
8
Undeflected
10
-1198.02
20
-19.6428
11
-1198.2
21
-19.8225
62
7
0
LINE
8
Undeflected
10
-1202.51
20
-19.6706
11
-1202.51
21
-19.7349
62
8
0
LINE
8
Undeflected
10
-1202.48
20
-19.6082
11
-1202.5
21
-19.6314
62
9
0
LINE
8
Undeflected
10
-1202.52
20
-18.4734
11
-1202.37
21
-18.546
62
10
0
LINE
8
Undeflected
10
-1201.52
20
-18.5468
11
-1201.33
21
-18.4088
62
1
0
LINE
8
Undeflected
10
-1202.52
20
-19.5
11
-1198.22
21
-19.5
62
2
0
LINE
8
Undeflected
10
-1198.22
20
-19.5
11
-1198.22
21
-19.5
62
3
0
LINE
8
Undeflected
10
-1198.22
20
-19.5
11
-1202.52
21
-19.5
62
4
0
LINE
8
Undeflected
10
-1202.52
20
-19.4
11
-1202.48
21
-19.4
62
5
0
LINE
8
Undeflected
10
-1202.48
20
-19.4
11
-1202.52
21
-19.4
62
6
0
LINE
8
Undeflected
10
-1200.48
20
-17.5339
11
-1200.59
21
-17.4976
62
7
0
LINE
8
Undeflected
10
-1200.89
20
-17.4974
11
-1200.59
21
-17.4976
62
8
0
LINE
8
Undeflected
10
-1201.08
20
-17.6354
11
-1200.89
21
-17.4974
62
9
0
LINE
8
Undeflected
10
-1201.08
20
-17.6354
11
-1201.33
21
-18.4088
62
10
0
LINE
8
Undeflected
10
-1201.33
20
-18.4088
11
-1201.52
21
-18.5468
62
1
0
LINE
8
Undeflected
10
-1201.52
20
-18.5468
11
-1202.37
21
-18.546
62
2
0
LINE
8
Undeflected
10
-1202.37
20
-18.546
11
-1202.52
21
-18.4734
62
3
0
LINE
8
Undeflected
10
-1202.52
20
-19.3
11
-1202.48
21
-19.3
62
4
0
LINE
8
Undeflected
10
-1200.48
20
-17.5339
11
-1198.02
21
-19.2567
62
5
0
LINE
8
Undeflected
10
-1200.62
20
-17.6047
11
-1200.51
21
-17.6409
62
6
0
LINE
8
Undeflected
10
-1200.51
20
-17.6409
11
-1198.02
21
-19.3846
62
7
0
LINE
8
Undeflected
10
-1198.02
20
-19.4082
11
-1202.48
21
-19.4082
62
8
0
LINE
8
Undeflected
10
-1202.48
20
-19.4082
11
-1202.48
21
-18.6547
62
9
0
LINE
8
Undeflected
10
-1202.48
20
-18.6547
11
-1201.44
21
-18.6547
62
10
0
LINE
8
Undeflected
10
-1201.44
20
-18.6547
11
-1201.25
21
-18.5166
62
1
0
LINE
8
Undeflected
10
-1201.25
20
-18.5166
11
-1201
21
-17.7429
62
2
0
LINE
8
Undeflected
10
-1200.81
20
-17.6047
11
-1201
21
-17.7429
62
3
0
LINE
8
Undeflected
10
-1200.81
20
-17.6047
11
-1200.62
21
-17.6047
62
4
0
LINE
8
Undeflected
10
-1200.51
20
-17.6409
11
-1200.48
21
-17.5339
62
5
0
LINE
8
Undeflected
10
-1202.51
20
-19.6423
11
-1202.48
21
-19.6082
62
6
0
LINE
8
Undeflected
10
-1202.48
20
-19.6082
11
-1198.02
21
-19.6082
62
7
0
LINE
8
Undeflected
10
-1201.08
20
-17.6354
11
-1201
21
-17.7429
62
8
0
LINE
8
Undeflected
10
-1201.25
20
-18.5166
11
-1201.33
21
-18.4088
62
9
0
LINE
8
Undeflected
10
-1200.81
20
-17.6047
11
-1200.89
21
-17.4974
62
10
0
LINE
8
Undeflected
10
-1200.59
20
-17.4976
11
-1200.62
21
-17.6047
62
1
0
LINE
8
Undeflected
10
-1198.22
20
-19.5
11
-1202.52
21
-19.5
62
2
0
LINE
8
Undeflected
10
-1202.52
20
-19.5
11
-1198.22
21
-19.5
62
3
0
LINE
8
Undeflected
10
-1198.22
20
-19.5
11
-1198.22
21
-19.5
62
4
0
LINE
8
Undeflected
10
-1202.52
20
13.9
11
-1202.92
21
14.3
62
5
0
LINE
8
Undeflected
10
-1202.92
20
14.3
11
-1202.52
21
13.9
62
6
0
LINE
8
Undeflected
10
-1202.92
20
18.25
11
-1202.92
21
14.3
62
7
0
LINE
8
Undeflected
10
-1202.92
20
14.3
11
-1202.92
21
18.25
62
8
0
LINE
8
Undeflected
10
-1201.35
20
16.3057
11
-1201.49
21
18.3272
62
9
0
LINE
8
Undeflected
10
-1201.38
20
16.3003
11
-1201.35
21
16.3057
62
10
0
LINE
8
Undeflected
10
-1201.52
20
18.25
11
-1201.52
21
18.3013
62
1
0
LINE
8
Undeflected
10
-1202.32
20
18.3275
11
-1202.32
21
18.4296
62
2
0
LINE
8
Undeflected
10
-1201.26
20
16.1565
11
-1201.3
21
16.1572
62
3
0
LINE
8
Undeflected
10
-1201.3
20
16.1572
11
-1201.35
21
16.3057
62
4
0
LINE
8
Undeflected
10
-1198.12
20
16.1017
11
-1198.02
21
16.1017
62
5
0
LINE
8
Undeflected
10
-1198.02
20
19.7018
11
-1198.02
21
19.646
62
6
0
LINE
8
Undeflected
10
-1198.02
20
19.646
11
-1198.02
21
19.486
62
7
0
LINE
8
Undeflected
10
-1198.02
20
19.486
11
-1198.02
21
19.2414
62
8
0
LINE
8
Undeflected
10
-1198.02
20
19.2414
11
-1198.02
21
18.9424
62
9
0
LINE
8
Undeflected
10
-1198.02
20
18.9424
11
-1198.02
21
18.802
62
10
0
LINE
8
Undeflected
10
-1200.73
20
14.5073
11
-1200.63
21
14.2419
62
1
0
LINE
8
Undeflected
10
-1200.63
20
14.2419
11
-1200.61
21
14.2111
62
2
0
LINE
8
Undeflected
10
-1201.18
20
15.8552
11
-1201.26
21
16.0555
62
3
0
LINE
8
Undeflected
10
-1201.26
20
16.0555
11
-1201.3
21
16.1572
62
4
0
LINE
8
Undeflected
10
-1201.15
20
15.8546
11
-1201.18
21
15.8552
62
5
0
LINE
8
Undeflected
10
-1201.32
20
16.3136
11
-1201.15
21
15.8546
62
6
0
LINE
8
Undeflected
10
-1201.32
20
16.3136
11
-1201.29
21
16.3193
62
7
0
LINE
8
Undeflected
10
-1201.12
20
15.8541
11
-1201.29
21
16.3193
62
8
0
LINE
8
Undeflected
10
-1201.08
20
15.8535
11
-1201.12
21
15.8541
62
9
0
LINE
8
Undeflected
10
-1201.08
20
15.8535
11
-1201.15
21
16.0536
62
10
0
LINE
8
Undeflected
10
-1201.15
20
16.0536
11
-1201.19
21
16.1553
62
1
0
LINE
8
Undeflected
10
-1200.61
20
14.6519
11
-1201.22
21
16.333
62
2
0
LINE
8
Undeflected
10
-1200.51
20
14.352
11
-1200.58
21
14.552
62
3
0
LINE
8
Undeflected
10
-1200.58
20
14.552
11
-1200.61
21
14.6519
62
4
0
LINE
8
Undeflected
10
-1200.61
20
14.2075
11
-1200.51
21
14.352
62
5
0
LINE
8
Undeflected
10
-1198.22
20
14.2097
11
-1200.61
21
14.2075
62
6
0
LINE
8
Undeflected
10
-1198.21
20
14.3522
11
-1198.21
21
14.4868
62
7
0
LINE
8
Undeflected
10
-1200.61
20
14.2074
11
-1198.22
21
14.2096
62
8
0
LINE
8
Undeflected
10
-1198.22
20
14.352
11
-1200.51
21
14.352
62
9
0
LINE
8
Undeflected
10
-1200.61
20
14.6519
11
-1198.22
21
14.6519
62
10
0
LINE
8
Undeflected
10
-1198.22
20
14.6519
11
-1198.22
21
14.3723
62
1
0
LINE
8
Undeflected
10
-1198.22
20
14.3723
11
-1198.22
21
14.3527
62
2
0
LINE
8
Undeflected
10
-1198.22
20
18.1623
11
-1198.22
21
14.6519
62
3
0
LINE
8
Undeflected
10
-1201.35
20
18.1623
11
-1198.22
21
18.1623
62
4
0
LINE
8
Undeflected
10
-1198.12
20
16.1017
11
-1198.12
21
15.8164
62
5
0
LINE
8
Undeflected
10
-1198.12
20
15.8164
11
-1198.12
21
15.8017
62
6
0
LINE
8
Undeflected
10
-1201.18
20
15.8552
11
-1201.15
21
15.8546
62
7
0
LINE
8
Undeflected
10
-1198.22
20
15.8035
11
-1198.12
21
15.8017
62
8
0
LINE
8
Undeflected
10
-1198.12
20
15.8017
11
-1198.22
21
15.8035
62
9
0
LINE
8
Undeflected
10
-1201.12
20
15.8541
11
-1201.08
21
15.8535
62
10
0
LINE
8
Undeflected
10
-1201.29
20
16.3193
11
-1201.35
21
17.2
62
1
0
LINE
8
Undeflected
10
-1201.31
20
17.2
11
-1201.35
21
17.2
62
2
0
LINE
8
Undeflected
10
-1201.38
20
17.2
11
-1201.35
21
17.2
62
3
0
LINE
8
Undeflected
10
-1201.38
20
17.2
11
-1201.32
21
16.3136
62
4
0
LINE
8
Undeflected
10
-1203.18
20
43.95
11
-1203.46
21
43.95
62
5
0
LINE
8
Undeflected
10
-1203.46
20
43.95
11
-1203.53
21
43.95
62
6
0
LINE
8
Undeflected
10
-1202.98
20
13.26
11
-1202.52
21
13.2579
62
7
0
LINE
8
Undeflected
10
-1205.94
20
-45.95
11
-1205.93
21
-45.95
62
8
0
LINE
8
Undeflected
10
-1204.68
20
-5.59757
11
-1204.68
21
-5.52637
62
9
0
LINE
8
Undeflected
10
-1211.24
20
-5.49657
11
-1204.68
21
-5.49657
62
10
0
LINE
8
Undeflected
10
-1204.68
20
-5.49657
11
-1204.69
21
-5.48248
62
1
0
LINE
8
Undeflected
10
-1204.38
20
-4.2034
11
-1204.45
21
-4.2034
62
2
0
LINE
8
Undeflected
10
-1204.48
20
-5.2966
11
-1204.46
21
-5.29663
62
3
0
LINE
8
Undeflected
10
-1204.38
20
-5.2966
11
-1204.29
21
-5.29722
62
4
0
LINE
8
Undeflected
10
-1204.68
20
-4.00338
11
-1204.68
21
-3.97944
62
5
0
LINE
8
Undeflected
10
-1204.68
20
-3.90243
11
-1204.68
21
-3.81376
62
6
0
LINE
8
Undeflected
10
-1211.24
20
-4.00343
11
-1211.31
21
-4.00525
62
7
0
LINE
8
Undeflected
10
-1211.31
20
-4.00525
11
-1211.43
21
-4.20053
62
8
0
LINE
8
Undeflected
10
-1211.43
20
-5.29733
11
-1210.58
21
-5.28251
62
9
0
LINE
8
Undeflected
10
-1211.84
20
-5.30254
11
-1211.77
21
-5.302
62
10
0
LINE
8
Undeflected
10
-1204.49
20
-4.21749
11
-1204.68
21
-4.21749
62
1
0
LINE
8
Undeflected
10
-1204.68
20
-3.09757
11
-1204.68
21
-3.02637
62
2
0
LINE
8
Undeflected
10
-1204.68
20
-2.99657
11
-1204.69
21
-2.98248
62
3
0
LINE
8
Undeflected
10
-1211.31
20
-2.99475
11
-1211.24
21
-2.99657
62
4
0
LINE
8
Undeflected
10
-1204.38
20
-1.7034
11
-1204.45
21
-1.7034
62
5
0
LINE
8
Undeflected
10
-1204.48
20
-2.7966
11
-1204.46
21
-2.79663
62
6
0
LINE
8
Undeflected
10
-1204.38
20
-2.7966
11
-1204.29
21
-2.79722
62
7
0
LINE
8
Undeflected
10
-1204.68
20
-1.50338
11
-1204.68
21
-1.47944
62
8
0
LINE
8
Undeflected
10
-1204.68
20
-1.40243
11
-1204.68
21
-1.31376
62
9
0
LINE
8
Undeflected
10
-1211.24
20
-1.50343
11
-1210.44
21
-1.51752
62
10
0
LINE
8
Undeflected
10
-1211.43
20
-1.70267
11
-1211.43
21
-2.79733
62
1
0
LINE
8
Undeflected
10
-1211.9
20
-1.69713
11
-1212.13
21
-1.69654
62
2
0
LINE
8
Undeflected
10
-1211.84
20
-2.80254
11
-1211.77
21
-2.802
62
3
0
LINE
8
Undeflected
10
-1212.07
20
-1.6785
11
-1211.72
21
-1.58327
62
4
0
LINE
8
Undeflected
10
-1211.72
20
-1.58327
11
-1211.4
21
-1.51524
62
5
0
LINE
8
Undeflected
10
-1211.31
20
-1.50525
11
-1211.32
21
-1.33485
62
6
0
LINE
8
Undeflected
10
-1204.68
20
-0.597573
11
-1204.68
21
-0.526365
62
7
0
LINE
8
Undeflected
10
-1211.24
20
-0.49657
11
-1204.68
21
-0.49657
62
8
0
LINE
8
Undeflected
10
-1204.68
20
-0.49657
11
-1204.69
21
-0.482484
62
9
0
LINE
8
Undeflected
10
-1204.69
20
-0.482484
11
-1204.69
21
-0.293178
62
10
0
LINE
8
Undeflected
10
-1204.38
20
0.796601
11
-1204.45
21
0.796601
62
1
0
LINE
8
Undeflected
10
-1204.48
20
-0.296601
11
-1204.46
21
-0.296632
62
2
0
LINE
8
Undeflected
10
-1204.38
20
-0.296601
11
-1204.29
21
-0.297219
62
3
0
LINE
8
Undeflected
10
-1204.68
20
0.996624
11
-1204.68
21
1.02056
62
4
0
LINE
8
Undeflected
10
-1204.68
20
1.09757
11
-1204.68
21
1.18624
62
5
0
LINE
8
Undeflected
10
-1204.69
20
0.881505
11
-1204.69
21
0.949042
62
6
0
LINE
8
Undeflected
10
-1211.24
20
0.99657
11
-1211.31
21
0.994754
62
7
0
LINE
8
Undeflected
10
-1211.31
20
0.994754
11
-1211.43
21
0.79947
62
8
0
LINE
8
Undeflected
10
-1211.43
20
-0.297326
11
-1210.58
21
-0.282514
62
9
0
LINE
8
Undeflected
10
-1211.9
20
0.802871
11
-1212.13
21
0.803463
62
10
0
LINE
8
Undeflected
10
-1211.84
20
-0.302541
11
-1211.77
21
-0.301998
62
1
0
LINE
8
Undeflected
10
-1212.07
20
0.821498
11
-1211.72
21
0.916731
62
2
0
LINE
8
Undeflected
10
-1211.72
20
0.916731
11
-1211.4
21
0.984758
62
3
0
LINE
8
Undeflected
10
-1211.31
20
0.994754
11
-1211.32
21
1.16515
62
4
0
LINE
8
Undeflected
10
-1204.69
20
-0.282514
11
-1204.69
21
0.427259
62
5
0
LINE
8
Undeflected
10
-1204.68
20
1.90243
11
-1204.68
21
1.97363
62
6
0
LINE
8
Undeflected
10
-1204.68
20
2.00343
11
-1204.69
21
2.01752
62
7
0
LINE
8
Undeflected
10
-1211.31
20
2.00525
11
-1211.24
21
2.00343
62
8
0
LINE
8
Undeflected
10
-1204.69
20
2.01752
11
-1204.69
21
2.20682
62
9
0
LINE
8
Undeflected
10
-1204.38
20
3.2966
11
-1204.45
21
3.2966
62
10
0
LINE
8
Undeflected
10
-1204.48
20
2.2034
11
-1204.46
21
2.20337
62
1
0
LINE
8
Undeflected
10
-1204.38
20
2.2034
11
-1204.29
21
2.20278
62
2
0
LINE
8
Undeflected
10
-1204.68
20
3.49662
11
-1204.68
21
3.52056
62
3
0
LINE
8
Undeflected
10
-1204.68
20
3.59757
11
-1204.68
21
3.68624
62
4
0
LINE
8
Undeflected
10
-1211.24
20
3.49657
11
-1210.44
21
3.48248
62
5
0
LINE
8
Undeflected
10
-1211.43
20
3.29733
11
-1211.43
21
2.20267
62
6
0
LINE
8
Undeflected
10
-1211.9
20
3.30287
11
-1212.13
21
3.30346
62
7
0
LINE
8
Undeflected
10
-1212.07
20
3.3215
11
-1211.72
21
3.41673
62
8
0
LINE
8
Undeflected
10
-1211.72
20
3.41673
11
-1211.4
21
3.48476
62
9
0
LINE
8
Undeflected
10
-1211.31
20
3.49475
11
-1211.32
21
3.66515
62
10
0
LINE
8
Undeflected
10
-1204.68
20
4.40243
11
-1204.68
21
4.47363
62
1
0
LINE
8
Undeflected
10
-1217.07
20
4.50338
11
-1217.07
21
4.47944
62
2
0
LINE
8
Undeflected
10
-1217.07
20
4.40243
11
-1217.07
21
4.31376
62
3
0
LINE
8
Undeflected
10
-1204.68
20
4.50343
11
-1204.7
21
4.522
62
4
0
LINE
8
Undeflected
10
-1204.38
20
6.24024
11
-1204.45
21
6.24024
62
5
0
LINE
8
Undeflected
10
-1204.48
20
4.7034
11
-1204.46
21
4.70337
62
6
0
LINE
8
Undeflected
10
-1204.38
20
4.7034
11
-1204.29
21
4.70278
62
7
0
LINE
8
Undeflected
10
-1217.07
20
6.54121
11
-1217.07
21
6.47
62
8
0
LINE
8
Undeflected
10
-1204.68
20
6.44026
11
-1204.68
21
6.46419
62
9
0
LINE
8
Undeflected
10
-1204.68
20
6.54121
11
-1204.68
21
6.62988
62
10
0
LINE
8
Undeflected
10
-1204.7
20
6.41789
11
-1204.68
21
6.43914
62
1
0
LINE
8
Undeflected
10
-1204.5
20
4.81469
11
-1204.5
21
6.2179
62
2
0
LINE
8
Undeflected
10
-1204.53
20
6.31963
11
-1204.59
21
6.38628
62
3
0
LINE
8
Undeflected
10
-1217.15
20
6.38979
11
-1217.21
21
6.32516
62
4
0
LINE
8
Undeflected
10
-1217.24
20
6.21788
11
-1217.24
21
4.81537
62
5
0
LINE
8
Undeflected
10
-1217.17
20
4.63031
11
-1217.12
21
4.59457
62
6
0
LINE
8
Undeflected
10
-1204.7
20
4.5788
11
-1204.64
21
4.5893
62
7
0
LINE
8
Undeflected
10
-1204.57
20
4.63066
11
-1204.53
21
4.68693
62
8
0
LINE
8
Undeflected
10
-1217.37
20
4.7034
11
-1217.3
21
4.7034
62
9
0
LINE
8
Undeflected
10
-1217.27
20
6.24024
11
-1217.29
21
6.24027
62
10
0
LINE
8
Undeflected
10
-1217.37
20
6.24024
11
-1217.46
21
6.24085
62
1
0
LINE
8
Undeflected
10
-1204.68
20
-8.54121
11
-1204.68
21
-8.47
62
2
0
LINE
8
Undeflected
10
-1217.07
20
-8.44026
11
-1217.07
21
-8.4642
62
3
0
LINE
8
Undeflected
10
-1217.07
20
-8.54121
11
-1217.07
21
-8.62988
62
4
0
LINE
8
Undeflected
10
-1217.04
20
-8.41674
11
-1204.7
21
-8.41676
62
5
0
LINE
8
Undeflected
10
-1204.68
20
-8.44021
11
-1204.7
21
-8.41676
62
6
0
LINE
8
Undeflected
10
-1204.5
20
-8.2168
11
-1204.5
21
-6.85033
62
7
0
LINE
8
Undeflected
10
-1204.52
20
-6.75908
11
-1204.61
21
-6.63471
62
8
0
LINE
8
Undeflected
10
-1204.7
20
-6.60796
11
-1217.05
21
-6.6086
62
9
0
LINE
8
Undeflected
10
-1217.05
20
-6.6086
11
-1217.11
21
-6.62161
62
10
0
LINE
8
Undeflected
10
-1217.11
20
-6.62161
11
-1217.22
21
-6.73347
62
1
0
LINE
8
Undeflected
10
-1217.24
20
-8.21679
11
-1217.22
21
-8.30784
62
2
0
LINE
8
Undeflected
10
-1217.14
20
-8.38911
11
-1217.06
21
-8.41637
62
3
0
LINE
8
Undeflected
10
-1204.38
20
-6.7034
11
-1204.45
21
-6.7034
62
4
0
LINE
8
Undeflected
10
-1204.48
20
-8.24024
11
-1204.46
21
-8.24027
62
5
0
LINE
8
Undeflected
10
-1204.38
20
-8.24024
11
-1204.29
21
-8.24086
62
6
0
LINE
8
Undeflected
10
-1217.07
20
-6.40243
11
-1217.07
21
-6.47364
62
7
0
LINE
8
Undeflected
10
-1204.68
20
-6.50338
11
-1204.68
21
-6.47944
62
8
0
LINE
8
Undeflected
10
-1204.68
20
-6.40243
11
-1204.68
21
-6.31376
62
9
0
LINE
8
Undeflected
10
-1217.07
20
-6.50343
11
-1217.05
21
-6.522
62
10
0
LINE
8
Undeflected
10
-1217.37
20
-8.24024
11
-1217.3
21
-8.24024
62
1
0
LINE
8
Undeflected
10
-1217.27
20
-6.7034
11
-1217.29
21
-6.70337
62
2
0
LINE
8
Undeflected
10
-1217.37
20
-6.7034
11
-1217.46
21
-6.70279
62
3
0
LINE
8
Undeflected
10
-1229.72
20
43.95
11
-1229.72
21
43.8581
62
4
0
LINE
8
Undeflected
10
-1229.32
20
-43.5844
11
-1229.52
21
-43.5844
62
5
0
LINE
8
Undeflected
10
-1229.52
20
-45.65
11
-1229.52
21
-43.5844
62
6
0
LINE
8
Undeflected
10
-1229.52
20
-45.75
11
-1229.52
21
-45.0983
62
7
0
LINE
8
Undeflected
10
-1229.52
20
-45.0983
11
-1229.52
21
-44.9354
62
8
0
LINE
8
Undeflected
10
-1229.52
20
-44.9354
11
-1229.52
21
-44.6994
62
9
0
LINE
8
Undeflected
10
-1232.47
20
-38.4207
11
-1232.47
21
-38.4213
62
10
0
LINE
8
Undeflected
10
-1232.47
20
-38.4214
11
-1232.3
21
-38.396
62
1
0
LINE
8
Undeflected
10
-1232.47
20
-38.4207
11
-1232.39
21
-38.9365
62
2
0
LINE
8
Undeflected
10
-1232.39
20
-38.9365
11
-1232.31
21
-39.4407
62
3
0
LINE
8
Undeflected
10
-1232.31
20
-39.4407
11
-1232.23
21
-39.9329
62
4
0
LINE
8
Undeflected
10
-1232.23
20
-39.9329
11
-1232.16
21
-40.4119
62
5
0
LINE
8
Undeflected
10
-1232.16
20
-40.4119
11
-1232.08
21
-40.8771
62
6
0
LINE
8
Undeflected
10
-1231.9
20
-40.8478
11
-1232.09
21
-40.8785
62
7
0
LINE
8
Undeflected
10
-1232.09
20
-40.8791
11
-1232.08
21
-40.8771
62
8
0
LINE
8
Undeflected
10
-1232.47
20
-38.4214
11
-1232.4
21
-38.9131
62
9
0
LINE
8
Undeflected
10
-1232.4
20
-38.9131
11
-1232.32
21
-39.4047
62
10
0
LINE
8
Undeflected
10
-1232.32
20
-39.4047
11
-1232.25
21
-39.8963
62
1
0
LINE
8
Undeflected
10
-1232.25
20
-39.8963
11
-1232.17
21
-40.3878
62
2
0
LINE
8
Undeflected
10
-1232.17
20
-40.3878
11
-1232.09
21
-40.8791
62
3
0
LINE
8
Undeflected
10
-1232.08
20
-40.8771
11
-1231.92
21
-40.8771
62
4
0
LINE
8
Undeflected
10
-1232.07
20
-42.3603
11
-1232.08
21
-42.3603
62
5
0
LINE
8
Undeflected
10
-1232.08
20
-42.3603
11
-1231.9
21
-42.3603
62
6
0
LINE
8
Undeflected
10
-1232.07
20
-41.0237
11
-1232.08
21
-41.0237
62
7
0
LINE
8
Undeflected
10
-1232.08
20
-41.0237
11
-1231.9
21
-41.0237
62
8
0
LINE
8
Undeflected
10
-1232.07
20
-41.0237
11
-1232.07
21
-42.3603
62
9
0
LINE
8
Undeflected
10
-1232.08
20
-41.0237
11
-1232.08
21
-42.3603
62
10
0
LINE
8
Undeflected
10
-1231.88
20
-41.0237
11
-1232.06
21
-41.0237
62
1
0
LINE
8
Undeflected
10
-1231.59
20
-42.6639
11
-1231.66
21
-42.6626
62
2
0
LINE
8
Undeflected
10
-1231.68
20
-42.6622
11
-1231.77
21
-42.6608
62
3
0
LINE
8
Undeflected
10
-1232.07
20
-42.3603
11
-1231.87
21
-42.6441
62
4
0
LINE
8
Undeflected
10
-1231.87
20
-42.6441
11
-1231.78
21
-42.6606
62
5
0
LINE
8
Undeflected
10
-1231.77
20
-42.6608
11
-1231.69
21
-42.6621
62
6
0
LINE
8
Undeflected
10
-1231.78
20
-42.4606
11
-1231.78
21
-42.6601
62
7
0
LINE
8
Undeflected
10
-1232.08
20
-42.3603
11
-1231.86
21
-42.6484
62
8
0
LINE
8
Undeflected
10
-1231.86
20
-42.6484
11
-1231.78
21
-42.6606
62
9
0
LINE
8
Undeflected
10
-1231.78
20
-42.6606
11
-1230.4
21
-42.6846
62
10
0
LINE
8
Undeflected
10
-1230.4
20
-42.6846
11
-1230.4
21
-42.4987
62
1
0
LINE
8
Undeflected
10
-1229.52
20
-43.5844
11
-1229.59
21
-43.234
62
2
0
LINE
8
Undeflected
10
-1229.59
20
-43.234
11
-1229.79
21
-42.9388
62
3
0
LINE
8
Undeflected
10
-1229.79
20
-42.9388
11
-1230.09
21
-42.7456
62
4
0
LINE
8
Undeflected
10
-1230.09
20
-42.7456
11
-1230.36
21
-42.6867
62
5
0
LINE
8
Undeflected
10
-1229.52
20
-43.5818
11
-1229.52
21
-43.5841
62
6
0
LINE
8
Undeflected
10
-1204.68
20
3.69654
11
-1204.68
21
3.49704
62
7
0
LINE
8
Undeflected
10
-1211.24
20
3.49657
11
-1211.24
21
3.68588
62
8
0
LINE
8
Undeflected
10
-1211.24
20
3.49657
11
-1204.68
21
3.49657
62
9
0
LINE
8
Undeflected
10
-1204.69
20
3.48248
11
-1210.44
21
3.48249
62
10
0
LINE
8
Undeflected
10
-1210.44
20
3.48248
11
-1211.24
21
3.49657
62
1
0
LINE
8
Undeflected
10
-1204.68
20
3.49657
11
-1204.69
21
3.48248
62
2
0
LINE
8
Undeflected
10
-1204.69
20
3.48248
11
-1204.69
21
3.29318
62
3
0
LINE
8
Undeflected
10
-1210.44
20
3.2823
11
-1204.69
21
3.28251
62
4
0
LINE
8
Undeflected
10
-1210.44
20
3.48246
11
-1210.44
21
3.29212
62
5
0
LINE
8
Undeflected
10
-1210.54
20
3.42305
11
-1210.45
21
3.48166
62
6
0
LINE
8
Undeflected
10
-1210.44
20
3.28251
11
-1210.57
21
3.28251
62
7
0
LINE
8
Undeflected
10
-1210.58
20
3.28251
11
-1210.54
21
3.41135
62
8
0
LINE
8
Undeflected
10
-1210.44
20
3.4825
11
-1210.44
21
3.48251
62
9
0
LINE
8
Undeflected
10
-1204.28
20
2.2034
11
-1204.48
21
2.2034
62
10
0
LINE
8
Undeflected
10
-1204.48
20
3.2966
11
-1204.28
21
3.2966
62
1
0
LINE
8
Undeflected
10
-1204.48
20
2.2034
11
-1204.48
21
3.2966
62
2
0
LINE
8
Undeflected
10
-1211.24
20
1.80346
11
-1211.24
21
2.00296
62
3
0
LINE
8
Undeflected
10
-1204.68
20
2.00343
11
-1204.68
21
1.80346
62
4
0
LINE
8
Undeflected
10
-1204.68
20
2.00343
11
-1211.24
21
2.00343
62
5
0
LINE
8
Undeflected
10
-1204.69
20
2.01752
11
-1210.44
21
2.01752
62
6
0
LINE
8
Undeflected
10
-1204.69
20
2.01752
11
-1204.68
21
2.00343
62
7
0
LINE
8
Undeflected
10
-1211.24
20
2.00343
11
-1210.44
21
2.01752
62
8
0
LINE
8
Undeflected
10
-1210.44
20
2.01752
11
-1210.44
21
2.09592
62
9
0
LINE
8
Undeflected
10
-1210.44
20
2.10393
11
-1210.44
21
2.21672
62
10
0
LINE
8
Undeflected
10
-1204.69
20
2.21807
11
-1210.44
21
2.21749
62
1
0
LINE
8
Undeflected
10
-1204.69
20
2.21749
11
-1204.69
21
2.01799
62
2
0
LINE
8
Undeflected
10
-1210.58
20
2.21749
11
-1210.54
21
2.08865
62
3
0
LINE
8
Undeflected
10
-1210.54
20
2.07695
11
-1210.45
21
2.01834
62
4
0
LINE
8
Undeflected
10
-1211.24
20
2.00343
11
-1211.31
21
2.00525
62
5
0
LINE
8
Undeflected
10
-1211.31
20
2.00525
11
-1211.43
21
2.20053
62
6
0
LINE
8
Undeflected
10
-1210.58
20
2.21749
11
-1211.43
21
2.20267
62
7
0
LINE
8
Undeflected
10
-1210.58
20
2.21749
11
-1210.58
21
3.28251
62
8
0
LINE
8
Undeflected
10
-1210.44
20
2.21748
11
-1210.44
21
3.28208
62
9
0
LINE
8
Undeflected
10
-1210.44
20
2.21749
11
-1210.57
21
2.21749
62
10
0
LINE
8
Undeflected
10
-1211.43
20
2.20267
11
-1211.43
21
3.29733
62
1
0
LINE
8
Undeflected
10
-1211.43
20
3.29733
11
-1210.58
21
3.28251
62
2
0
LINE
8
Undeflected
10
-1211.43
20
2.20267
11
-1211.75
21
2.19813
62
3
0
LINE
8
Undeflected
10
-1211.75
20
2.19813
11
-1212.06
21
2.1966
62
4
0
LINE
8
Undeflected
10
-1212.13
20
3.30346
11
-1211.75
21
3.30187
62
5
0
LINE
8
Undeflected
10
-1211.75
20
3.30187
11
-1211.43
21
3.29733
62
6
0
LINE
8
Undeflected
10
-1211.31
20
3.49475
11
-1211.61
21
3.44304
62
7
0
LINE
8
Undeflected
10
-1211.61
20
3.44304
11
-1211.96
21
3.35353
62
8
0
LINE
8
Undeflected
10
-1211.96
20
3.35353
11
-1212.13
21
3.30346
62
9
0
LINE
8
Undeflected
10
-1211.33
20
3.69218
11
-1211.31
21
3.49475
62
10
0
LINE
8
Undeflected
10
-1204.69
20
3.28251
11
-1204.69
21
2.21749
62
1
0
LINE
8
Undeflected
10
-1204.49
20
3.28251
11
-1204.49
21
2.21749
62
2
0
LINE
8
Undeflected
10
-1204.49
20
2.21749
11
-1204.68
21
2.21749
62
3
0
LINE
8
Undeflected
10
-1204.69
20
3.28251
11
-1204.49
21
3.28251
62
4
0
LINE
8
Undeflected
10
-1211.31
20
0.994754
11
-1211.61
21
0.943039
62
5
0
LINE
8
Undeflected
10
-1211.61
20
0.943039
11
-1211.96
21
0.853528
62
6
0
LINE
8
Undeflected
10
-1211.96
20
0.853528
11
-1212.13
21
0.803461
62
7
0
LINE
8
Undeflected
10
-1211.33
20
1.19218
11
-1211.31
21
0.994754
62
8
0
LINE
8
Undeflected
10
-1204.68
20
1.19654
11
-1204.68
21
0.99704
62
9
0
LINE
8
Undeflected
10
-1211.24
20
0.99657
11
-1211.24
21
1.18588
62
10
0
LINE
8
Undeflected
10
-1211.24
20
0.99657
11
-1204.68
21
0.99657
62
1
0
LINE
8
Undeflected
10
-1204.69
20
0.982484
11
-1210.44
21
0.982492
62
2
0
LINE
8
Undeflected
10
-1210.44
20
0.982484
11
-1211.24
21
0.99657
62
3
0
LINE
8
Undeflected
10
-1204.68
20
0.99657
11
-1204.69
21
0.982484
62
4
0
LINE
8
Undeflected
10
-1210.54
20
0.92305
11
-1210.45
21
0.981661
62
5
0
LINE
8
Undeflected
10
-1210.58
20
0.782514
11
-1210.54
21
0.911348
62
6
0
LINE
8
Undeflected
10
-1211.43
20
0.797326
11
-1210.58
21
0.782514
62
7
0
LINE
8
Undeflected
10
-1211.43
20
0.797326
11
-1211.31
21
0.994401
62
8
0
LINE
8
Undeflected
10
-1211.31
20
0.994754
11
-1211.24
21
0.99657
62
9
0
LINE
8
Undeflected
10
-1210.44
20
0.982484
11
-1210.44
21
0.793178
62
10
0
LINE
8
Undeflected
10
-1210.44
20
0.782514
11
-1210.57
21
0.782514
62
1
0
LINE
8
Undeflected
10
-1204.69
20
0.982484
11
-1204.69
21
0.793178
62
2
0
LINE
8
Undeflected
10
-1204.69
20
0.782514
11
-1210.44
21
0.782514
62
3
0
LINE
8
Undeflected
10
-1204.28
20
-0.296601
11
-1204.48
21
-0.296601
62
4
0
LINE
8
Undeflected
10
-1204.48
20
0.7966
11
-1204.28
21
0.796599
62
5
0
LINE
8
Undeflected
10
-1204.48
20
-0.2966
11
-1204.48
21
0.7966
62
6
0
LINE
8
Undeflected
10
-1211.24
20
-0.696539
11
-1211.24
21
-0.49704
62
7
0
LINE
8
Undeflected
10
-1204.68
20
-0.49657
11
-1204.68
21
-0.696539
62
8
0
LINE
8
Undeflected
10
-1204.68
20
-0.49657
11
-1211.24
21
-0.49657
62
9
0
LINE
8
Undeflected
10
-1204.69
20
-0.482484
11
-1210.44
21
-0.482484
62
10
0
LINE
8
Undeflected
10
-1204.69
20
-0.482484
11
-1204.68
21
-0.49657
62
1
0
LINE
8
Undeflected
10
-1211.24
20
-0.49657
11
-1210.44
21
-0.482484
62
2
0
LINE
8
Undeflected
10
-1210.44
20
-0.482484
11
-1210.44
21
-0.404083
62
3
0
LINE
8
Undeflected
10
-1210.44
20
-0.396073
11
-1210.44
21
-0.283278
62
4
0
LINE
8
Undeflected
10
-1204.69
20
-0.281642
11
-1210.44
21
-0.282515
62
5
0
LINE
8
Undeflected
10
-1204.69
20
-0.281642
11
-1204.69
21
-0.482484
62
6
0
LINE
8
Undeflected
10
-1210.58
20
-0.282514
11
-1210.58
21
0.782514
62
7
0
LINE
8
Undeflected
10
-1210.44
20
-0.282515
11
-1210.44
21
0.782514
62
8
0
LINE
8
Undeflected
10
-1210.44
20
-0.282514
11
-1210.57
21
-0.282514
62
9
0
LINE
8
Undeflected
10
-1210.58
20
-0.282514
11
-1211.43
21
-0.297326
62
10
0
LINE
8
Undeflected
10
-1211.43
20
-0.297326
11
-1211.43
21
0.797326
62
1
0
LINE
8
Undeflected
10
-1211.43
20
-0.297326
11
-1211.75
21
-0.301866
62
2
0
LINE
8
Undeflected
10
-1211.75
20
-0.301866
11
-1212.13
21
-0.303463
62
3
0
LINE
8
Undeflected
10
-1212.13
20
0.803461
11
-1211.75
21
0.801866
62
4
0
LINE
8
Undeflected
10
-1211.75
20
0.801866
11
-1211.43
21
0.797326
62
5
0
LINE
8
Undeflected
10
-1211.31
20
-0.494754
11
-1211.33
21
-0.692183
62
6
0
LINE
8
Undeflected
10
-1212.13
20
-0.303463
11
-1211.78
21
-0.400932
62
7
0
LINE
8
Undeflected
10
-1211.78
20
-0.400932
11
-1211.46
21
-0.476108
62
8
0
LINE
8
Undeflected
10
-1211.46
20
-0.476108
11
-1211.31
21
-0.494754
62
9
0
LINE
8
Undeflected
10
-1204.69
20
0.782515
11
-1204.69
21
-0.281642
62
10
0
LINE
8
Undeflected
10
-1204.68
20
-1.30346
11
-1204.68
21
-1.50296
62
1
0
LINE
8
Undeflected
10
-1211.24
20
-1.50343
11
-1211.24
21
-1.31412
62
2
0
LINE
8
Undeflected
10
-1211.24
20
-1.50343
11
-1204.68
21
-1.50343
62
3
0
LINE
8
Undeflected
10
-1210.44
20
-1.51752
11
-1204.69
21
-1.51752
62
4
0
LINE
8
Undeflected
10
-1210.44
20
-1.51752
11
-1211.24
21
-1.50343
62
5
0
LINE
8
Undeflected
10
-1204.68
20
-1.50343
11
-1204.69
21
-1.51752
62
6
0
LINE
8
Undeflected
10
-1204.69
20
-1.51752
11
-1204.69
21
-1.70682
62
7
0
LINE
8
Undeflected
10
-1210.44
20
-1.71749
11
-1204.69
21
-1.71836
62
8
0
LINE
8
Undeflected
10
-1210.44
20
-1.71748
11
-1210.44
21
-1.51799
62
9
0
LINE
8
Undeflected
10
-1204.28
20
-2.7966
11
-1204.48
21
-2.7966
62
10
0
LINE
8
Undeflected
10
-1204.48
20
-1.7034
11
-1204.28
21
-1.7034
62
1
0
LINE
8
Undeflected
10
-1204.48
20
-2.7966
11
-1204.48
21
-1.7034
62
2
0
LINE
8
Undeflected
10
-1211.24
20
-3.19654
11
-1211.24
21
-2.99704
62
3
0
LINE
8
Undeflected
10
-1204.68
20
-2.99657
11
-1204.68
21
-3.19654
62
4
0
LINE
8
Undeflected
10
-1204.68
20
-2.99657
11
-1211.24
21
-2.99657
62
5
0
LINE
8
Undeflected
10
-1204.69
20
-2.98248
11
-1210.44
21
-2.98248
62
6
0
LINE
8
Undeflected
10
-1204.69
20
-2.98248
11
-1204.68
21
-2.99657
62
7
0
LINE
8
Undeflected
10
-1211.24
20
-2.99657
11
-1210.44
21
-2.98248
62
8
0
LINE
8
Undeflected
10
-1210.44
20
-2.98248
11
-1210.44
21
-2.90408
62
9
0
LINE
8
Undeflected
10
-1210.44
20
-2.89607
11
-1210.44
21
-2.78328
62
10
0
LINE
8
Undeflected
10
-1204.69
20
-2.78251
11
-1210.44
21
-2.78251
62
1
0
LINE
8
Undeflected
10
-1204.69
20
-2.78251
11
-1204.69
21
-2.98201
62
2
0
LINE
8
Undeflected
10
-1210.58
20
-2.78251
11
-1210.54
21
-2.91135
62
3
0
LINE
8
Undeflected
10
-1210.54
20
-2.92305
11
-1210.45
21
-2.98166
62
4
0
LINE
8
Undeflected
10
-1211.24
20
-2.99657
11
-1211.31
21
-2.99475
62
5
0
LINE
8
Undeflected
10
-1211.31
20
-2.99475
11
-1211.43
21
-2.79947
62
6
0
LINE
8
Undeflected
10
-1210.58
20
-2.78251
11
-1211.43
21
-2.79733
62
7
0
LINE
8
Undeflected
10
-1210.58
20
-2.78251
11
-1210.58
21
-1.71749
62
8
0
LINE
8
Undeflected
10
-1211.43
20
-2.79733
11
-1211.43
21
-1.70267
62
9
0
LINE
8
Undeflected
10
-1211.43
20
-1.70267
11
-1210.58
21
-1.71749
62
10
0
LINE
8
Undeflected
10
-1210.58
20
-1.71749
11
-1210.45
21
-1.71749
62
1
0
LINE
8
Undeflected
10
-1210.44
20
-2.78251
11
-1210.44
21
-1.71748
62
2
0
LINE
8
Undeflected
10
-1210.44
20
-2.78251
11
-1210.57
21
-2.78251
62
3
0
LINE
8
Undeflected
10
-1211.43
20
-2.79733
11
-1211.75
21
-2.80187
62
4
0
LINE
8
Undeflected
10
-1211.75
20
-2.80187
11
-1212.06
21
-2.8034
62
5
0
LINE
8
Undeflected
10
-1212.13
20
-1.69654
11
-1211.75
21
-1.69813
62
6
0
LINE
8
Undeflected
10
-1211.75
20
-1.69813
11
-1211.43
21
-1.70267
62
7
0
LINE
8
Undeflected
10
-1211.31
20
-1.50525
11
-1211.61
21
-1.55696
62
8
0
LINE
8
Undeflected
10
-1211.61
20
-1.55696
11
-1211.96
21
-1.64647
62
9
0
LINE
8
Undeflected
10
-1211.96
20
-1.64647
11
-1212.13
21
-1.69654
62
10
0
LINE
8
Undeflected
10
-1211.33
20
-1.30782
11
-1211.31
21
-1.50525
62
1
0
LINE
8
Undeflected
10
-1212.13
20
-2.80346
11
-1211.78
21
-2.90093
62
2
0
LINE
8
Undeflected
10
-1211.78
20
-2.90093
11
-1211.46
21
-2.97611
62
3
0
LINE
8
Undeflected
10
-1211.46
20
-2.97611
11
-1211.31
21
-2.99475
62
4
0
LINE
8
Undeflected
10
-1211.31
20
-2.99475
11
-1211.33
21
-3.19218
62
5
0
LINE
8
Undeflected
10
-1204.69
20
-1.71836
11
-1204.69
21
-2.78251
62
6
0
LINE
8
Undeflected
10
-1204.68
20
-3.80346
11
-1204.68
21
-4.00296
62
7
0
LINE
8
Undeflected
10
-1211.24
20
-4.00343
11
-1211.24
21
-3.81412
62
8
0
LINE
8
Undeflected
10
-1211.24
20
-4.00343
11
-1204.68
21
-4.00343
62
9
0
LINE
8
Undeflected
10
-1210.44
20
-4.01752
11
-1204.69
21
-4.01752
62
10
0
LINE
8
Undeflected
10
-1210.44
20
-4.01752
11
-1211.24
21
-4.00343
62
1
0
LINE
8
Undeflected
10
-1204.68
20
-4.00343
11
-1204.69
21
-4.01752
62
2
0
LINE
8
Undeflected
10
-1210.44
20
-4.01752
11
-1210.53
21
-4.06613
62
3
0
LINE
8
Undeflected
10
-1210.54
20
-4.07695
11
-1210.58
21
-4.20166
62
4
0
LINE
8
Undeflected
10
-1211.43
20
-4.20267
11
-1210.58
21
-4.21749
62
5
0
LINE
8
Undeflected
10
-1211.43
20
-4.20267
11
-1211.31
21
-4.0056
62
6
0
LINE
8
Undeflected
10
-1211.31
20
-4.00525
11
-1211.24
21
-4.00343
62
7
0
LINE
8
Undeflected
10
-1204.69
20
-4.01752
11
-1204.69
21
-4.20682
62
8
0
LINE
8
Undeflected
10
-1210.44
20
-4.21748
11
-1204.69
21
-4.21807
62
9
0
LINE
8
Undeflected
10
-1210.44
20
-4.21748
11
-1210.44
21
-4.01799
62
10
0
LINE
8
Undeflected
10
-1204.28
20
-5.2966
11
-1204.48
21
-5.2966
62
1
0
LINE
8
Undeflected
10
-1204.48
20
-4.2034
11
-1204.28
21
-4.2034
62
2
0
LINE
8
Undeflected
10
-1204.48
20
-5.2966
11
-1204.48
21
-4.2034
62
3
0
LINE
8
Undeflected
10
-1211.24
20
-5.69654
11
-1211.24
21
-5.49704
62
4
0
LINE
8
Undeflected
10
-1204.68
20
-5.49657
11
-1204.68
21
-5.69654
62
5
0
LINE
8
Undeflected
10
-1204.68
20
-5.49657
11
-1211.24
21
-5.49657
62
6
0
LINE
8
Undeflected
10
-1204.69
20
-5.48248
11
-1210.44
21
-5.48248
62
7
0
LINE
8
Undeflected
10
-1204.69
20
-5.48248
11
-1204.68
21
-5.49657
62
8
0
LINE
8
Undeflected
10
-1211.24
20
-5.49657
11
-1210.44
21
-5.48248
62
9
0
LINE
8
Undeflected
10
-1210.44
20
-5.48248
11
-1210.44
21
-5.40408
62
10
0
LINE
8
Undeflected
10
-1210.44
20
-5.39607
11
-1210.44
21
-5.28328
62
1
0
LINE
8
Undeflected
10
-1204.69
20
-5.28251
11
-1210.44
21
-5.28252
62
2
0
LINE
8
Undeflected
10
-1204.69
20
-5.28251
11
-1204.69
21
-5.48201
62
3
0
LINE
8
Undeflected
10
-1210.58
20
-5.28251
11
-1210.58
21
-4.21749
62
4
0
LINE
8
Undeflected
10
-1210.58
20
-5.28251
11
-1211.43
21
-5.29733
62
5
0
LINE
8
Undeflected
10
-1211.43
20
-5.29733
11
-1211.43
21
-4.20267
62
6
0
LINE
8
Undeflected
10
-1210.58
20
-4.21749
11
-1210.45
21
-4.21749
62
7
0
LINE
8
Undeflected
10
-1210.44
20
-5.28252
11
-1210.44
21
-4.21748
62
8
0
LINE
8
Undeflected
10
-1210.44
20
-5.28251
11
-1210.57
21
-5.28251
62
9
0
LINE
8
Undeflected
10
-1211.43
20
-5.29733
11
-1211.75
21
-5.30187
62
10
0
LINE
8
Undeflected
10
-1211.75
20
-5.30187
11
-1212.13
21
-5.30346
62
1
0
LINE
8
Undeflected
10
-1212.13
20
-4.19654
11
-1211.75
21
-4.19813
62
2
0
LINE
8
Undeflected
10
-1211.75
20
-4.19813
11
-1211.43
21
-4.20267
62
3
0
LINE
8
Undeflected
10
-1212.13
20
-5.30346
11
-1211.78
21
-5.40093
62
4
0
LINE
8
Undeflected
10
-1211.78
20
-5.40093
11
-1211.46
21
-5.47611
62
5
0
LINE
8
Undeflected
10
-1211.46
20
-5.47611
11
-1211.31
21
-5.49475
62
6
0
LINE
8
Undeflected
10
-1211.31
20
-5.49475
11
-1211.33
21
-5.69218
62
7
0
LINE
8
Undeflected
10
-1204.69
20
-4.21836
11
-1204.69
21
-5.28251
62
8
0
LINE
8
Undeflected
10
-1204.49
20
-4.21749
11
-1204.49
21
-5.28251
62
9
0
LINE
8
Undeflected
10
-1204.49
20
-5.28251
11
-1204.68
21
-5.28251
62
10
0
LINE
8
Undeflected
10
-1204.69
20
-4.21749
11
-1204.49
21
-4.21749
62
1
0
LINE
8
Undeflected
10
-1204.68
20
-6.30346
11
-1204.68
21
-6.50296
62
2
0
LINE
8
Undeflected
10
-1217.07
20
-6.50343
11
-1217.07
21
-6.30346
62
3
0
LINE
8
Undeflected
10
-1217.07
20
-6.50343
11
-1204.68
21
-6.50343
62
4
0
LINE
8
Undeflected
10
-1204.68
20
-6.50343
11
-1204.7
21
-6.522
62
5
0
LINE
8
Undeflected
10
-1204.7
20
-6.522
11
-1217.05
21
-6.522
62
6
0
LINE
8
Undeflected
10
-1217.05
20
-6.522
11
-1217.07
21
-6.50343
62
7
0
LINE
8
Undeflected
10
-1204.28
20
-8.24024
11
-1204.48
21
-8.24024
62
8
0
LINE
8
Undeflected
10
-1204.48
20
-6.7034
11
-1204.28
21
-6.7034
62
9
0
LINE
8
Undeflected
10
-1204.48
20
-8.24024
11
-1204.48
21
-6.7034
62
10
0
LINE
8
Undeflected
10
-1217.07
20
-8.64018
11
-1217.07
21
-8.44068
62
1
0
LINE
8
Undeflected
10
-1204.68
20
-8.44021
11
-1204.68
21
-8.64018
62
2
0
LINE
8
Undeflected
10
-1204.68
20
-8.44021
11
-1217.07
21
-8.44021
62
3
0
LINE
8
Undeflected
10
-1217.04
20
-8.41674
11
-1204.7
21
-8.41676
62
4
0
LINE
8
Undeflected
10
-1204.7
20
-8.41676
11
-1204.68
21
-8.44021
62
5
0
LINE
8
Undeflected
10
-1217.07
20
-8.44021
11
-1217.04
21
-8.41674
62
6
0
LINE
8
Undeflected
10
-1204.5
20
-6.85033
11
-1204.5
21
-8.2168
62
7
0
LINE
8
Undeflected
10
-1204.5
20
-8.2168
11
-1204.7
21
-8.41676
62
8
0
LINE
8
Undeflected
10
-1217.04
20
-8.41674
11
-1217.24
21
-8.21679
62
9
0
LINE
8
Undeflected
10
-1217.24
20
-8.21679
11
-1217.24
21
-6.85101
62
10
0
LINE
8
Undeflected
10
-1217.24
20
-6.85101
11
-1217.11
21
-6.62161
62
1
0
LINE
8
Undeflected
10
-1217.11
20
-6.62161
11
-1217.05
21
-6.6086
62
2
0
LINE
8
Undeflected
10
-1217.05
20
-6.6086
11
-1204.7
21
-6.60796
62
3
0
LINE
8
Undeflected
10
-1204.7
20
-6.60796
11
-1204.63
21
-6.62309
62
4
0
LINE
8
Undeflected
10
-1204.63
20
-6.62309
11
-1204.5
21
-6.85033
62
5
0
LINE
8
Undeflected
10
-1217.47
20
-6.7034
11
-1217.27
21
-6.7034
62
6
0
LINE
8
Undeflected
10
-1217.27
20
-8.24024
11
-1217.47
21
-8.24024
62
7
0
LINE
8
Undeflected
10
-1217.27
20
-6.7034
11
-1217.27
21
-8.24024
62
8
0
LINE
8
Undeflected
10
-1204.68
20
6.64018
11
-1204.68
21
6.44068
62
9
0
LINE
8
Undeflected
10
-1217.07
20
6.44021
11
-1217.07
21
6.64018
62
10
0
LINE
8
Undeflected
10
-1217.07
20
6.44021
11
-1204.68
21
6.44021
62
1
0
LINE
8
Undeflected
10
-1217.04
20
6.41787
11
-1204.7
21
6.41789
62
2
0
LINE
8
Undeflected
10
-1217.04
20
6.41787
11
-1217.07
21
6.44021
62
3
0
LINE
8
Undeflected
10
-1204.68
20
6.44021
11
-1204.7
21
6.41789
62
4
0
LINE
8
Undeflected
10
-1204.5
20
6.2179
11
-1204.5
21
4.81469
62
5
0
LINE
8
Undeflected
10
-1204.5
20
4.81469
11
-1204.53
21
4.69623
62
6
0
LINE
8
Undeflected
10
-1204.53
20
4.69623
11
-1204.7
21
4.5788
62
7
0
LINE
8
Undeflected
10
-1204.7
20
4.5788
11
-1217.05
21
4.5793
62
8
0
LINE
8
Undeflected
10
-1217.05
20
4.5793
11
-1217.22
21
4.69482
62
9
0
LINE
8
Undeflected
10
-1217.22
20
4.69482
11
-1217.24
21
4.81537
62
10
0
LINE
8
Undeflected
10
-1217.24
20
4.81537
11
-1217.24
21
6.21788
62
1
0
LINE
8
Undeflected
10
-1217.24
20
6.21788
11
-1217.04
21
6.41787
62
2
0
LINE
8
Undeflected
10
-1204.7
20
6.41789
11
-1204.5
21
6.2179
62
3
0
LINE
8
Undeflected
10
-1204.28
20
4.7034
11
-1204.48
21
4.7034
62
4
0
LINE
8
Undeflected
10
-1204.48
20
6.24024
11
-1204.28
21
6.24024
62
5
0
LINE
8
Undeflected
10
-1204.48
20
4.7034
11
-1204.48
21
6.24024
62
6
0
LINE
8
Undeflected
10
-1217.07
20
4.30346
11
-1217.07
21
4.50296
62
7
0
LINE
8
Undeflected
10
-1204.68
20
4.50343
11
-1204.68
21
4.30346
62
8
0
LINE
8
Undeflected
10
-1204.68
20
4.50343
11
-1217.07
21
4.50343
62
9
0
LINE
8
Undeflected
10
-1217.07
20
4.50343
11
-1217.05
21
4.522
62
10
0
LINE
8
Undeflected
10
-1217.05
20
4.522
11
-1204.7
21
4.522
62
1
0
LINE
8
Undeflected
10
-1204.7
20
4.522
11
-1204.68
21
4.50343
62
2
0
LINE
8
Undeflected
10
-1217.47
20
6.24024
11
-1217.27
21
6.24024
62
3
0
LINE
8
Undeflected
10
-1217.27
20
4.7034
11
-1217.47
21
4.7034
62
4
0
LINE
8
Undeflected
10
-1217.27
20
6.24024
11
-1217.27
21
4.7034
62
5
0
LINE
8
Undeflected
10
-1223.62
20
-45.95
11
-1223.62
21
-46.1335
62
6
0
LINE
8
Undeflected
10
-1223.62
20
-46.1335
11
-1223.82
21
-45.95
62
7
0
LINE
8
Undeflected
10
-1220.28
20
-46.0086
11
-1220.15
21
-45.9507
62
8
0
LINE
8
Undeflected
10
-1220.14
20
-45.95
11
-1220.27
21
-45.997
62
9
0
LINE
8
Undeflected
10
-1220.28
20
-46.0086
11
-1222.02
21
-47.7471
62
10
0
LINE
8
Undeflected
10
-1222.02
20
-47.7471
11
-1222.07
21
-47.7985
62
1
0
LINE
8
Undeflected
10
-1222.07
20
-47.7985
11
-1222.02
21
-47.7471
62
2
0
LINE
8
Undeflected
10
-1222.02
20
-47.7471
11
-1220.28
21
-46.0086
62
3
0
LINE
8
Undeflected
10
-1220.7
20
-46.1465
11
-1222.16
21
-47.6092
62
4
0
LINE
8
Undeflected
10
-1222.02
20
-47.7471
11
-1222.15
21
-47.6174
62
5
0
LINE
8
Undeflected
10
-1220.7
20
-46.1465
11
-1220.38
21
-46.0403
62
6
0
LINE
8
Undeflected
10
-1220.38
20
-46.0403
11
-1220.28
21
-46.0086
62
7
0
LINE
8
Undeflected
10
-1222.15
20
-46.1465
11
-1220.7
21
-46.1465
62
8
0
LINE
8
Undeflected
10
-1222.16
20
-47.6092
11
-1222.15
21
-46.1465
62
9
0
LINE
8
Undeflected
10
-1220.28
20
-46.0086
11
-1220.42
21
-46.0542
62
10
0
LINE
8
Undeflected
10
-1222.15
20
-46.1465
11
-1222.38
21
-46.1462
62
1
0
LINE
8
Undeflected
10
-1222.38
20
-46.1462
11
-1222.57
21
-46.1465
62
2
0
LINE
8
Undeflected
10
-1222.57
20
-46.1465
11
-1222.59
21
-47.9351
62
3
0
LINE
8
Undeflected
10
-1222.2
20
-47.6607
11
-1222.16
21
-47.6092
62
4
0
LINE
8
Undeflected
10
-1222.82
20
-47.9535
11
-1222.78
21
-47.9535
62
5
0
LINE
8
Undeflected
10
-1222.93
20
-46.1465
11
-1223.22
21
-46.136
62
6
0
LINE
8
Undeflected
10
-1223.22
20
-46.136
11
-1223.36
21
-46.1326
62
7
0
LINE
8
Undeflected
10
-1223.82
20
-45.95
11
-1223.75
21
-45.9785
62
8
0
LINE
8
Undeflected
10
-1223.67
20
-46.0512
11
-1223.62
21
-46.1317
62
9
0
LINE
8
Undeflected
10
-1223.62
20
-46.1383
11
-1223.62
21
-46.1247
62
10
0
LINE
8
Undeflected
10
-1223.62
20
-46.1326
11
-1223.63
21
-46.1326
62
1
0
LINE
8
Undeflected
10
-1223.63
20
-46.1326
11
-1223.62
21
-46.1639
62
2
0
LINE
8
Undeflected
10
-1223.81
20
-47.0599
11
-1224.47
21
-47.0944
62
3
0
LINE
8
Undeflected
10
-1224.57
20
-47.1264
11
-1224.73
21
-47.2326
62
4
0
LINE
8
Undeflected
10
-1223.62
20
-46.8602
11
-1223.81
21
-47.0599
62
5
0
LINE
8
Undeflected
10
-1223.62
20
-46.1326
11
-1223.36
21
-46.1326
62
6
0
LINE
8
Undeflected
10
-1223.36
20
-46.1326
11
-1223.24
21
-47.9674
62
7
0
LINE
8
Undeflected
10
-1223.24
20
-47.9674
11
-1224.64
21
-47.9674
62
8
0
LINE
8
Undeflected
10
-1224.64
20
-47.9674
11
-1224.74
21
-47.7892
62
9
0
LINE
8
Undeflected
10
-1224.82
20
-47.4892
11
-1224.74
21
-47.7892
62
10
0
LINE
8
Undeflected
10
-1224.82
20
-47.4892
11
-1224.82
21
-47.4003
62
1
0
LINE
8
Undeflected
10
-1224.73
20
-47.2326
11
-1224.82
21
-47.4003
62
2
0
LINE
8
Undeflected
10
-1224.73
20
-47.2326
11
-1224.57
21
-47.1264
62
3
0
LINE
8
Undeflected
10
-1224.57
20
-47.1264
11
-1224.47
21
-47.0944
62
4
0
LINE
8
Undeflected
10
-1224.47
20
-47.0944
11
-1223.81
21
-47.0599
62
5
0
LINE
8
Undeflected
10
-1223.62
20
-46.8602
11
-1223.62
21
-46.1957
62
6
0
LINE
8
Undeflected
10
-1223.62
20
-46.1957
11
-1223.62
21
-46.1326
62
7
0
LINE
8
Undeflected
10
-1224.53
20
-48.15
11
-1224.64
21
-47.9674
62
8
0
LINE
8
Undeflected
10
-1223.24
20
-48.15
11
-1224.53
21
-48.15
62
9
0
LINE
8
Undeflected
10
-1223.24
20
-48.15
11
-1223.24
21
-47.984
62
10
0
LINE
8
Undeflected
10
-1222.96
20
-48.15
11
-1223.24
21
-48.15
62
1
0
LINE
8
Undeflected
10
-1222.82
20
-47.9535
11
-1222.94
21
-48.1482
62
2
0
LINE
8
Undeflected
10
-1223.24
20
-47.9674
11
-1222.93
21
-47.9583
62
3
0
LINE
8
Undeflected
10
-1222.93
20
-47.9583
11
-1222.82
21
-47.9535
62
4
0
LINE
8
Undeflected
10
-1222.96
20
-48.15
11
-1223.24
21
-48.15
62
5
0
LINE
8
Undeflected
10
-1222.82
20
-47.9535
11
-1222.93
21
-46.1465
62
6
0
LINE
8
Undeflected
10
-1223.36
20
-46.1326
11
-1223.04
21
-46.1417
62
7
0
LINE
8
Undeflected
10
-1223.04
20
-46.1417
11
-1222.93
21
-46.1465
62
8
0
LINE
8
Undeflected
10
-1222.93
20
-46.1465
11
-1222.57
21
-46.1465
62
9
0
LINE
8
Undeflected
10
-1222.57
20
-46.1465
11
-1222.59
21
-47.9352
62
10
0
LINE
8
Undeflected
10
-1222.59
20
-47.9352
11
-1222.72
21
-47.9522
62
1
0
LINE
8
Undeflected
10
-1222.78
20
-47.9535
11
-1222.82
21
-47.9535
62
2
0
LINE
8
Undeflected
10
-1222.69
20
-48.128
11
-1222.92
21
-48.15
62
3
0
LINE
8
Undeflected
10
-1222.28
20
-47.9639
11
-1222.46
21
-48.0612
62
4
0
LINE
8
Undeflected
10
-1222.69
20
-48.128
11
-1222.38
21
-48.0234
62
5
0
LINE
8
Undeflected
10
-1222.38
20
-48.0234
11
-1222.07
21
-47.7985
62
6
0
LINE
8
Undeflected
10
-1222.92
20
-48.15
11
-1222.69
21
-48.128
62
7
0
LINE
8
Undeflected
10
-1222.92
20
-48.15
11
-1222.92
21
-48.15
62
8
0
LINE
8
Undeflected
10
-1222.69
20
-48.128
11
-1222.59
21
-47.9352
62
9
0
LINE
8
Undeflected
10
-1222.2
20
-47.6607
11
-1222.07
21
-47.7985
62
10
0
LINE
8
Undeflected
10
-1222.59
20
-47.9352
11
-1222.31
21
-47.7813
62
1
0
LINE
8
Undeflected
10
-1222.31
20
-47.7813
11
-1222.2
21
-47.6607
62
2
0
LINE
8
Undeflected
10
-1222.69
20
-48.128
11
-1222.38
21
-48.0242
62
3
0
LINE
8
Undeflected
10
-1222.38
20
-48.0242
11
-1222.12
21
-47.8442
62
4
0
LINE
8
Undeflected
10
-1222.12
20
-47.8442
11
-1222.07
21
-47.7997
62
5
0
LINE
8
Undeflected
10
-1224.53
20
-48.15
11
-1223.24
21
-48.15
62
6
0
LINE
8
Undeflected
10
-1222.96
20
-48.15
11
-1223.13
21
-48.15
62
7
0
LINE
8
Undeflected
10
-1222.92
20
-48.15
11
-1222.96
21
-48.15
62
8
0
LINE
8
Undeflected
10
-1222.96
20
-48.15
11
-1222.92
21
-48.15
62
9
0
LINE
8
Undeflected
10
-1223.24
20
-48.15
11
-1223.24
21
-48.149
62
10
0
LINE
8
Undeflected
10
-1222.78
20
-47.9535
11
-1222.91
21
-48.1497
62
1
0
LINE
8
Undeflected
10
-1222.92
20
-48.15
11
-1222.69
21
-48.128
62
2
0
LINE
8
Undeflected
10
-1222.07
20
-47.7985
11
-1222.07
21
-47.7963
62
3
0
LINE
8
Undeflected
10
-1222.31
20
-47.9848
11
-1222.26
21
-47.952
62
4
0
LINE
8
Undeflected
10
-1203.18
20
-45.95
11
-1203.47
21
-45.95
62
5
0
LINE
8
Undeflected
10
-1203.47
20
-45.95
11
-1203.5
21
-45.95
62
6
0
LINE
8
Undeflected
10
-1220.28
20
44.0086
11
-1220.15
21
43.9507
62
7
0
LINE
8
Undeflected
10
-1220.14
20
43.95
11
-1220.27
21
43.997
62
8
0
LINE
8
Undeflected
10
-1222.02
20
45.7471
11
-1222.06
21
45.7934
62
9
0
LINE
8
Undeflected
10
-1222.07
20
45.7985
11
-1222.02
21
45.7471
62
10
0
LINE
8
Undeflected
10
-1220.42
20
44.0556
11
-1220.29
21
44.0112
62
1
0
LINE
8
Undeflected
10
-1220.28
20
44.0086
11
-1220.58
21
44.1074
62
2
0
LINE
8
Undeflected
10
-1222.2
20
45.6607
11
-1222.16
21
45.6092
62
3
0
LINE
8
Undeflected
10
-1222.82
20
45.9535
11
-1222.78
21
45.9535
62
4
0
LINE
8
Undeflected
10
-1222.93
20
44.1465
11
-1223.22
21
44.136
62
5
0
LINE
8
Undeflected
10
-1223.22
20
44.136
11
-1223.36
21
44.1326
62
6
0
LINE
8
Undeflected
10
-1223.62
20
44.1364
11
-1223.62
21
44.1745
62
7
0
LINE
8
Undeflected
10
-1223.81
20
45.0599
11
-1223.62
21
44.8602
62
8
0
LINE
8
Undeflected
10
-1223.81
20
45.0599
11
-1224.47
21
45.0944
62
9
0
LINE
8
Undeflected
10
-1224.57
20
45.1264
11
-1224.73
21
45.2326
62
10
0
LINE
8
Undeflected
10
-1224.82
20
45.4003
11
-1224.82
21
45.4892
62
1
0
LINE
8
Undeflected
10
-1224.73
20
45.2326
11
-1224.57
21
45.1264
62
2
0
LINE
8
Undeflected
10
-1223.24
20
46.0927
11
-1223.24
21
45.9688
62
3
0
LINE
8
Undeflected
10
-1223.04
20
46.15
11
-1223.13
21
46.15
62
4
0
LINE
8
Undeflected
10
-1222.87
20
46.1104
11
-1222.95
21
46.1498
62
5
0
LINE
8
Undeflected
10
-1222.96
20
46.15
11
-1223.21
21
46.15
62
6
0
LINE
8
Undeflected
10
-1223.36
20
44.1326
11
-1223.22
21
44.136
62
7
0
LINE
8
Undeflected
10
-1222.81
20
46.145
11
-1222.72
21
46.1331
62
8
0
LINE
8
Undeflected
10
-1222.92
20
46.15
11
-1222.92
21
46.15
62
9
0
LINE
8
Undeflected
10
-1222.69
20
46.128
11
-1222.83
21
46.1466
62
10
0
LINE
8
Undeflected
10
-1222.28
20
45.9638
11
-1222.46
21
46.0611
62
1
0
LINE
8
Undeflected
10
-1222.07
20
45.7948
11
-1222.08
21
45.7883
62
2
0
LINE
8
Undeflected
10
-1222.8
20
46.0584
11
-1222.85
21
46.1257
62
3
0
LINE
8
Undeflected
10
-1222.96
20
46.15
11
-1223.13
21
46.15
62
4
0
LINE
8
Undeflected
10
-1222.92
20
46.15
11
-1222.96
21
46.15
62
5
0
LINE
8
Undeflected
10
-1222.96
20
46.15
11
-1222.92
21
46.15
62
6
0
LINE
8
Undeflected
10
-1223.62
20
44.1254
11
-1223.69
21
44.0289
62
7
0
LINE
8
Undeflected
10
-1223.76
20
43.9711
11
-1223.81
21
43.9524
62
8
0
LINE
8
Undeflected
10
-1220.28
20
44.0086
11
-1220.15
21
43.9507
62
9
0
LINE
8
Undeflected
10
-1220.14
20
43.95
11
-1220.27
21
43.997
62
10
0
LINE
8
Undeflected
10
-1220.28
20
44.0086
11
-1222.02
21
45.7471
62
1
0
LINE
8
Undeflected
10
-1222.02
20
45.7471
11
-1222.07
21
45.7985
62
2
0
LINE
8
Undeflected
10
-1222.07
20
45.7985
11
-1222.02
21
45.7471
62
3
0
LINE
8
Undeflected
10
-1222.02
20
45.7471
11
-1220.28
21
44.0086
62
4
0
LINE
8
Undeflected
10
-1220.54
20
44.0954
11
-1220.28
21
44.009
62
5
0
LINE
8
Undeflected
10
-1222.57
20
44.1465
11
-1222.38
21
44.1462
62
6
0
LINE
8
Undeflected
10
-1222.38
20
44.1462
11
-1222.15
21
44.1465
62
7
0
LINE
8
Undeflected
10
-1222.16
20
45.6092
11
-1222.2
21
45.6607
62
8
0
LINE
8
Undeflected
10
-1222.59
20
45.9352
11
-1222.57
21
44.1465
62
9
0
LINE
8
Undeflected
10
-1222.93
20
44.1465
11
-1222.57
21
44.1465
62
10
0
LINE
8
Undeflected
10
-1222.71
20
45.9512
11
-1222.65
21
45.9456
62
1
0
LINE
8
Undeflected
10
-1222.8
20
45.953
11
-1222.82
21
45.9535
62
2
0
LINE
8
Undeflected
10
-1222.16
20
45.6092
11
-1222.02
21
45.7469
62
3
0
LINE
8
Undeflected
10
-1222.16
20
45.6092
11
-1220.7
21
44.1465
62
4
0
LINE
8
Undeflected
10
-1220.28
20
44.0086
11
-1220.57
21
44.1056
62
5
0
LINE
8
Undeflected
10
-1220.57
20
44.1056
11
-1220.7
21
44.1465
62
6
0
LINE
8
Undeflected
10
-1220.7
20
44.1465
11
-1222.15
21
44.1465
62
7
0
LINE
8
Undeflected
10
-1222.15
20
44.1465
11
-1222.16
21
45.6092
62
8
0
LINE
8
Undeflected
10
-1223.82
20
43.95
11
-1223.62
21
44.1335
62
9
0
LINE
8
Undeflected
10
-1223.62
20
44.1335
11
-1223.62
21
43.95
62
10
0
LINE
8
Undeflected
10
-1223.36
20
44.1326
11
-1223.13
21
44.1387
62
1
0
LINE
8
Undeflected
10
-1224.73
20
45.2326
11
-1224.57
21
45.1264
62
2
0
LINE
8
Undeflected
10
-1224.47
20
45.0944
11
-1223.81
21
45.0599
62
3
0
LINE
8
Undeflected
10
-1223.62
20
44.1957
11
-1223.62
21
44.1769
62
4
0
LINE
8
Undeflected
10
-1223.81
20
45.0599
11
-1223.62
21
44.8602
62
5
0
LINE
8
Undeflected
10
-1223.36
20
44.1326
11
-1223.62
21
44.1326
62
6
0
LINE
8
Undeflected
10
-1223.62
20
44.1326
11
-1223.62
21
44.1957
62
7
0
LINE
8
Undeflected
10
-1223.62
20
44.1957
11
-1223.62
21
44.8602
62
8
0
LINE
8
Undeflected
10
-1223.81
20
45.0599
11
-1224.47
21
45.0944
62
9
0
LINE
8
Undeflected
10
-1224.47
20
45.0944
11
-1224.57
21
45.1264
62
10
0
LINE
8
Undeflected
10
-1224.57
20
45.1264
11
-1224.73
21
45.2326
62
1
0
LINE
8
Undeflected
10
-1224.82
20
45.4003
11
-1224.73
21
45.2326
62
2
0
LINE
8
Undeflected
10
-1224.82
20
45.4003
11
-1224.82
21
45.4892
62
3
0
LINE
8
Undeflected
10
-1224.74
20
45.7892
11
-1224.82
21
45.4892
62
4
0
LINE
8
Undeflected
10
-1224.74
20
45.7892
11
-1224.64
21
45.9674
62
5
0
LINE
8
Undeflected
10
-1224.64
20
45.9674
11
-1223.24
21
45.9674
62
6
0
LINE
8
Undeflected
10
-1223.24
20
45.9674
11
-1223.36
21
44.1326
62
7
0
LINE
8
Undeflected
10
-1222.93
20
44.1465
11
-1222.82
21
45.9526
62
8
0
LINE
8
Undeflected
10
-1223.24
20
45.9674
11
-1222.93
21
45.9583
62
9
0
LINE
8
Undeflected
10
-1222.93
20
45.9583
11
-1222.82
21
45.9526
62
10
0
LINE
8
Undeflected
10
-1222.93
20
44.1465
11
-1223.22
21
44.136
62
1
0
LINE
8
Undeflected
10
-1223.22
20
44.136
11
-1223.36
21
44.1326
62
2
0
LINE
8
Undeflected
10
-1222.57
20
44.1465
11
-1222.93
21
44.1465
62
3
0
LINE
8
Undeflected
10
-1222.82
20
45.9526
11
-1222.78
21
45.9535
62
4
0
LINE
8
Undeflected
10
-1222.78
20
45.9535
11
-1222.64
21
45.9437
62
5
0
LINE
8
Undeflected
10
-1222.59
20
45.9352
11
-1222.57
21
44.1465
62
6
0
LINE
8
Undeflected
10
-1224.64
20
45.9674
11
-1224.53
21
46.15
62
7
0
LINE
8
Undeflected
10
-1223.24
20
45.9674
11
-1223.24
21
46.1493
62
8
0
LINE
8
Undeflected
10
-1223.24
20
46.15
11
-1224.53
21
46.15
62
9
0
LINE
8
Undeflected
10
-1222.96
20
46.15
11
-1223.21
21
46.15
62
10
0
LINE
8
Undeflected
10
-1222.92
20
46.15
11
-1222.96
21
46.15
62
1
0
LINE
8
Undeflected
10
-1222.96
20
46.15
11
-1222.92
21
46.15
62
2
0
LINE
8
Undeflected
10
-1223.17
20
46.15
11
-1222.99
21
46.15
62
3
0
LINE
8
Undeflected
10
-1224.53
20
46.15
11
-1223.24
21
46.15
62
4
0
LINE
8
Undeflected
10
-1223.24
20
45.9674
11
-1223.24
21
46.0917
62
5
0
LINE
8
Undeflected
10
-1222.92
20
46.15
11
-1222.78
21
45.9782
62
6
0
LINE
8
Undeflected
10
-1222.69
20
46.128
11
-1222.92
21
46.15
62
7
0
LINE
8
Undeflected
10
-1222.69
20
46.128
11
-1222.92
21
46.15
62
8
0
LINE
8
Undeflected
10
-1222.69
20
46.128
11
-1222.92
21
46.15
62
9
0
LINE
8
Undeflected
10
-1222.69
20
46.128
11
-1222.39
21
46.0259
62
10
0
LINE
8
Undeflected
10
-1222.39
20
46.0259
11
-1222.07
21
45.7985
62
1
0
LINE
8
Undeflected
10
-1222.28
20
45.9689
11
-1222.47
21
46.0645
62
2
0
LINE
8
Undeflected
10
-1222.07
20
45.7909
11
-1222.07
21
45.7963
62
3
0
LINE
8
Undeflected
10
-1222.64
20
46.1176
11
-1222.68
21
46.1256
62
4
0
LINE
8
Undeflected
10
-1222.59
20
45.9352
11
-1222.67
21
46.1224
62
5
0
LINE
8
Undeflected
10
-1222.2
20
45.6607
11
-1222.43
21
45.8705
62
6
0
LINE
8
Undeflected
10
-1222.43
20
45.8705
11
-1222.59
21
45.9352
62
7
0
LINE
8
Undeflected
10
-1222.07
20
45.7985
11
-1222.2
21
45.6607
62
8
0
LINE
8
Undeflected
10
-1222.69
20
46.128
11
-1222.38
21
46.0242
62
9
0
LINE
8
Undeflected
10
-1222.38
20
46.0242
11
-1222.12
21
45.8442
62
10
0
LINE
8
Undeflected
10
-1222.12
20
45.8442
11
-1222.07
21
45.7996
62
1
0
LINE
8
Undeflected
10
-1222.96
20
46.15
11
-1222.82
21
45.9642
62
2
0
LINE
8
Undeflected
10
-1229.49
20
-45.8475
11
-1229.66
21
-45.8446
62
3
0
LINE
8
Undeflected
10
-1229.66
20
-45.8446
11
-1229.54
21
-45.8466
62
4
0
LINE
8
Undeflected
10
-1229.49
20
-45.8475
11
-1229.61
21
-45.8455
62
5
0
LINE
8
Undeflected
10
-1229.66
20
-45.8446
11
-1229.49
21
-45.8475
62
6
0
LINE
8
Undeflected
10
-1229.66
20
-45.8446
11
-1229.49
21
-45.8475
62
7
0
LINE
8
Undeflected
10
-1229.49
20
-45.8475
11
-1229.66
21
-45.8446
62
8
0
LINE
8
Undeflected
10
-1229.66
20
-45.8446
11
-1229.54
21
-45.8466
62
9
0
LINE
8
Undeflected
10
-1229.49
20
-45.8475
11
-1229.61
21
-45.8455
62
10
0
LINE
8
Undeflected
10
-1229.62
20
-44.5261
11
-1230.77
21
-44.5262
62
1
0
LINE
8
Undeflected
10
-1230.29
20
-44.0133
11
-1230.51
21
-44.2989
62
2
0
LINE
8
Undeflected
10
-1230.51
20
-44.2989
11
-1230.77
21
-44.5262
62
3
0
LINE
8
Undeflected
10
-1230.29
20
-44.0133
11
-1230.14
21
-43.6857
62
4
0
LINE
8
Undeflected
10
-1230.14
20
-43.6857
11
-1230.07
21
-43.3294
62
5
0
LINE
8
Undeflected
10
-1230.07
20
-43.3294
11
-1230.06
21
-43.1447
62
6
0
LINE
8
Undeflected
10
-1230.06
20
-43.1447
11
-1230.06
21
-42.7611
62
7
0
LINE
8
Undeflected
10
-1232.29
20
-38.3364
11
-1234.7
21
-38.3364
62
8
0
LINE
8
Undeflected
10
-1234.7
20
-38.3364
11
-1235.04
21
-38.3468
62
9
0
LINE
8
Undeflected
10
-1235.04
20
-38.3468
11
-1235.08
21
-38.35
62
10
0
LINE
8
Undeflected
10
-1235.08
20
-38.35
11
-1235.08
21
-38.05
62
1
0
LINE
8
Undeflected
10
-1229.52
20
-44.6764
11
-1229.62
21
-44.8877
62
2
0
LINE
8
Undeflected
10
-1229.62
20
-44.9
11
-1229.62
21
-44.7265
62
3
0
LINE
8
Undeflected
10
-1229.62
20
-44.7047
11
-1229.62
21
-44.5261
62
4
0
LINE
8
Undeflected
10
-1231.32
20
-44.6181
11
-1231.62
21
-44.6137
62
5
0
LINE
8
Undeflected
10
-1230.77
20
-44.5262
11
-1231.09
21
-44.5945
62
6
0
LINE
8
Undeflected
10
-1231.09
20
-44.5945
11
-1231.32
21
-44.6181
62
7
0
LINE
8
Undeflected
10
-1230.45
20
-43.9188
11
-1230.29
21
-44.0133
62
8
0
LINE
8
Undeflected
10
-1231.62
20
-44.6137
11
-1231.2
21
-44.5447
62
9
0
LINE
8
Undeflected
10
-1231.2
20
-44.5447
11
-1230.83
21
-44.345
62
10
0
LINE
8
Undeflected
10
-1230.83
20
-44.345
11
-1230.53
21
-44.039
62
1
0
LINE
8
Undeflected
10
-1230.53
20
-44.039
11
-1230.45
21
-43.9188
62
2
0
LINE
8
Undeflected
10
-1231.58
20
-44.6129
11
-1231.52
21
-44.586
62
3
0
LINE
8
Undeflected
10
-1231.52
20
-44.5856
11
-1231.35
21
-44.5841
62
4
0
LINE
8
Undeflected
10
-1231.01
20
-44.5812
11
-1229.8
21
-44.5706
62
5
0
LINE
8
Undeflected
10
-1229.8
20
-44.5706
11
-1229.81
21
-44.6508
62
6
0
LINE
8
Undeflected
10
-1229.81
20
-44.6508
11
-1229.81
21
-44.7047
62
7
0
LINE
8
Undeflected
10
-1249.12
20
-48.8647
11
-1249.65
21
-47.9476
62
8
0
LINE
8
Undeflected
10
-1229.71
20
-45.9805
11
-1229.68
21
-46.0069
62
9
0
LINE
8
Undeflected
10
-1229.72
20
-46.0458
11
-1232.76
21
-49.0914
62
10
0
LINE
8
Undeflected
10
-1229.68
20
-46.0074
11
-1229.7
21
-45.9827
62
1
0
LINE
8
Undeflected
10
-1229.8
20
-44.5706
11
-1231.01
21
-44.5812
62
2
0
LINE
8
Undeflected
10
-1231.35
20
-44.5841
11
-1231.52
21
-44.5856
62
3
0
LINE
8
Undeflected
10
-1231.52
20
-44.5856
11
-1231.57
21
-44.6126
62
4
0
LINE
8
Undeflected
10
-1249.06
20
-49.15
11
-1232.9
21
-49.15
62
5
0
LINE
8
Undeflected
10
-1232.9
20
-49.15
11
-1249.06
21
-49.15
62
6
0
LINE
8
Undeflected
10
-1249.06
20
-49.15
11
-1249.06
21
-49.0924
62
7
0
LINE
8
Undeflected
10
-1249.65
20
-48.3301
11
-1249.23
21
-49.05
62
8
0
LINE
8
Undeflected
10
-1249.23
20
-49.05
11
-1249.65
21
-48.3301
62
9
0
LINE
8
Undeflected
10
-1198.02
20
-30.8874
11
-1072.38
21
-27.6483
62
10
0
LINE
8
Undeflected
10
-1072.38
20
-27.6483
11
-946.75
21
-24.4092
62
1
0
LINE
8
Undeflected
10
-946.75
20
-24.4092
11
-821.115
21
-21.17
62
2
0
LINE
8
Undeflected
10
-821.115
20
-21.17
11
-695.479
21
-17.9309
62
3
0
LINE
8
Undeflected
10
-695.479
20
-17.9309
11
-569.844
21
-14.6918
62
4
0
LINE
8
Undeflected
10
-569.844
20
-14.6918
11
-444.209
21
-11.4526
62
5
0
LINE
8
Undeflected
10
-444.209
20
-11.4526
11
-318.574
21
-8.2135
62
6
0
LINE
8
Undeflected
10
-318.574
20
-8.2135
11
-192.939
21
-4.97437
62
7
0
LINE
8
Undeflected
10
-192.939
20
-4.97437
11
-67.3039
21
-1.73523
62
8
0
LINE
8
Undeflected
10
-1249.12
20
-48.9828
11
-1249.23
21
-49.0497
62
9
0
LINE
8
Undeflected
10
-1249.23
20
-49.05
11
-1249.65
21
-48.3301
62
10
0
LINE
8
Undeflected
10
-1232.9
20
-49.15
11
-1249.06
21
-49.15
62
1
0
LINE
8
Undeflected
10
-1232.9
20
-49.15
11
-1232.9
21
-49.15
62
2
0
LINE
8
Undeflected
10
-1249.06
20
-49.15
11
-1232.9
21
-49.15
62
3
0
LINE
8
Undeflected
10
-1249.06
20
-49.15
11
-1249.06
21
-49.15
62
4
0
LINE
8
Undeflected
10
-1229.72
20
-46.0458
11
-1232.76
21
-49.0914
62
5
0
LINE
8
Undeflected
10
-1229.82
20
43.8506
11
-1229.81
21
43.8781
62
6
0
LINE
8
Undeflected
10
-1229.77
20
43.9446
11
-1229.62
21
43.7661
62
7
0
LINE
8
Undeflected
10
-1229.62
20
43.76
11
-1229.75
21
43.9407
62
8
0
LINE
8
Undeflected
10
-1229.66
20
-45.8699
11
-1229.62
21
-45.7528
62
9
0
LINE
8
Undeflected
10
-1229.62
20
-45.75
11
-1229.65
21
-45.8629
62
10
0
LINE
8
Undeflected
10
-1250.05
20
12.2929
11
-1250.43
21
12.2274
62
1
0
LINE
8
Undeflected
10
-1250.43
20
12.2274
11
-1250.77
21
12.0522
62
2
0
LINE
8
Undeflected
10
-1250.77
20
12.0522
11
-1251.05
21
11.7831
62
3
0
LINE
8
Undeflected
10
-1251.05
20
11.7831
11
-1251.23
21
11.444
62
4
0
LINE
8
Undeflected
10
-1251.23
20
11.444
11
-1251.31
21
11.0653
62
5
0
LINE
8
Undeflected
10
-1251.31
20
11.0653
11
-1251.27
21
10.6807
62
6
0
LINE
8
Undeflected
10
-1251.27
20
10.6807
11
-1251.12
21
10.3247
62
7
0
LINE
8
Undeflected
10
-1251.12
20
10.3247
11
-1250.87
21
10.0289
62
8
0
LINE
8
Undeflected
10
-1250.87
20
10.0289
11
-1250.55
21
9.81995
62
9
0
LINE
8
Undeflected
10
-1250.55
20
9.81995
11
-1250.18
21
9.71637
62
10
0
LINE
8
Undeflected
10
-1250.18
20
9.71637
11
-1250.05
21
9.70716
62
1
0
LINE
8
Undeflected
10
-1249.99
20
9.70713
11
-1249.61
21
9.77262
62
2
0
LINE
8
Undeflected
10
-1249.61
20
9.77262
11
-1249.27
21
9.94775
62
3
0
LINE
8
Undeflected
10
-1249.27
20
9.94775
11
-1248.99
21
10.2169
62
4
0
LINE
8
Undeflected
10
-1248.99
20
10.2169
11
-1248.81
21
10.556
62
5
0
LINE
8
Undeflected
10
-1248.81
20
10.556
11
-1248.73
21
10.9347
62
6
0
LINE
8
Undeflected
10
-1248.73
20
10.9347
11
-1248.77
21
11.3193
62
7
0
LINE
8
Undeflected
10
-1248.77
20
11.3193
11
-1248.92
21
11.6753
62
8
0
LINE
8
Undeflected
10
-1248.92
20
11.6753
11
-1249.17
21
11.9711
62
9
0
LINE
8
Undeflected
10
-1249.17
20
11.9711
11
-1249.49
21
12.1801
62
10
0
LINE
8
Undeflected
10
-1249.49
20
12.1801
11
-1249.86
21
12.2836
62
1
0
LINE
8
Undeflected
10
-1249.86
20
12.2836
11
-1249.99
21
12.2928
62
2
0
LINE
8
Undeflected
10
-1250.02
20
9.70686
11
-1250.02
21
9.90636
62
3
0
LINE
8
Undeflected
10
-1250.04
20
12.093
11
-1250.36
21
12.0377
62
4
0
LINE
8
Undeflected
10
-1250.36
20
12.0377
11
-1250.66
21
11.8896
62
5
0
LINE
8
Undeflected
10
-1250.66
20
11.8896
11
-1250.89
21
11.6621
62
6
0
LINE
8
Undeflected
10
-1250.89
20
11.6621
11
-1251.05
21
11.3754
62
7
0
LINE
8
Undeflected
10
-1251.05
20
11.3754
11
-1251.11
21
11.0552
62
8
0
LINE
8
Undeflected
10
-1251.11
20
11.0552
11
-1251.08
21
10.7301
62
9
0
LINE
8
Undeflected
10
-1251.08
20
10.7301
11
-1250.95
21
10.4291
62
10
0
LINE
8
Undeflected
10
-1250.95
20
10.4291
11
-1250.74
21
10.179
62
1
0
LINE
8
Undeflected
10
-1250.74
20
10.179
11
-1250.47
21
10.0023
62
2
0
LINE
8
Undeflected
10
-1250.47
20
10.0023
11
-1250.15
21
9.91478
62
3
0
LINE
8
Undeflected
10
-1250.15
20
9.91478
11
-1250.04
21
9.90699
62
4
0
LINE
8
Undeflected
10
-1250.02
20
12.2931
11
-1250.02
21
12.0936
62
5
0
LINE
8
Undeflected
10
-1250
20
9.90697
11
-1249.68
21
9.96233
62
6
0
LINE
8
Undeflected
10
-1249.68
20
9.96233
11
-1249.38
21
10.1104
62
7
0
LINE
8
Undeflected
10
-1249.38
20
10.1104
11
-1249.15
21
10.3379
62
8
0
LINE
8
Undeflected
10
-1249.15
20
10.3379
11
-1248.99
21
10.6246
62
9
0
LINE
8
Undeflected
10
-1248.99
20
10.6246
11
-1248.93
21
10.9448
62
10
0
LINE
8
Undeflected
10
-1248.93
20
10.9448
11
-1248.96
21
11.2699
62
1
0
LINE
8
Undeflected
10
-1248.96
20
11.2699
11
-1249.09
21
11.5709
62
2
0
LINE
8
Undeflected
10
-1249.09
20
11.5709
11
-1249.3
21
11.821
62
3
0
LINE
8
Undeflected
10
-1249.3
20
11.821
11
-1249.57
21
11.9977
62
4
0
LINE
8
Undeflected
10
-1249.57
20
11.9977
11
-1249.89
21
12.0852
62
5
0
LINE
8
Undeflected
10
-1249.89
20
12.0852
11
-1250
21
12.093
62
6
0
LINE
8
Undeflected
10
-1250.02
20
9.93866
11
-1249.71
21
9.98606
62
7
0
LINE
8
Undeflected
10
-1249.71
20
9.98606
11
-1249.42
21
10.124
62
8
0
LINE
8
Undeflected
10
-1249.42
20
10.124
11
-1249.19
21
10.3403
62
9
0
LINE
8
Undeflected
10
-1249.19
20
10.3403
11
-1249.03
21
10.6154
62
10
0
LINE
8
Undeflected
10
-1249.03
20
10.6154
11
-1248.96
21
10.9249
62
1
0
LINE
8
Undeflected
10
-1248.96
20
10.9249
11
-1248.99
21
11.2411
62
2
0
LINE
8
Undeflected
10
-1248.99
20
11.2411
11
-1249.1
21
11.5358
62
3
0
LINE
8
Undeflected
10
-1249.1
20
11.5358
11
-1249.3
21
11.7826
62
4
0
LINE
8
Undeflected
10
-1249.3
20
11.7826
11
-1249.57
21
11.9595
62
5
0
LINE
8
Undeflected
10
-1249.57
20
11.9595
11
-1249.87
21
12.0507
62
6
0
LINE
8
Undeflected
10
-1249.87
20
12.0507
11
-1249.98
21
12.0604
62
7
0
LINE
8
Undeflected
10
-1250.02
20
12.0613
11
-1250.02
21
12.0933
62
8
0
LINE
8
Undeflected
10
-1250.02
20
9.90674
11
-1250.02
21
9.93866
62
9
0
LINE
8
Undeflected
10
-1252.52
20
-8.2
11
-1252.42
21
-7.86121
62
10
0
LINE
8
Undeflected
10
-1252.42
20
-7.86121
11
-1252.14
21
-7.64078
62
1
0
LINE
8
Undeflected
10
-1252.14
20
-7.64078
11
-1251.96
21
-7.6015
62
2
0
LINE
8
Undeflected
10
-1240.42
20
-7.6
11
-1240.08
21
-7.7048
62
3
0
LINE
8
Undeflected
10
-1240.08
20
-7.7048
11
-1239.86
21
-7.98259
62
4
0
LINE
8
Undeflected
10
-1239.86
20
-7.98259
11
-1239.82
21
-8.15756
62
5
0
LINE
8
Undeflected
10
-1239.82
20
-11.4
11
-1239.92
21
-11.7388
62
6
0
LINE
8
Undeflected
10
-1239.92
20
-11.7388
11
-1240.2
21
-11.9592
62
7
0
LINE
8
Undeflected
10
-1240.2
20
-11.9592
11
-1240.38
21
-11.9985
62
8
0
LINE
8
Undeflected
10
-1240.42
20
-12
11
-1247.32
21
-12
62
9
0
LINE
8
Undeflected
10
-1247.92
20
-14.4
11
-1247.97
21
-14.8569
62
10
0
LINE
8
Undeflected
10
-1247.97
20
-14.8569
11
-1248.1
21
-15.2957
62
1
0
LINE
8
Undeflected
10
-1248.1
20
-15.2957
11
-1248.32
21
-15.6987
62
2
0
LINE
8
Undeflected
10
-1248.32
20
-15.6987
11
-1248.62
21
-16.0499
62
3
0
LINE
8
Undeflected
10
-1248.62
20
-16.0499
11
-1248.98
21
-16.3354
62
4
0
LINE
8
Undeflected
10
-1248.98
20
-16.3354
11
-1249.39
21
-16.5437
62
5
0
LINE
8
Undeflected
10
-1249.39
20
-16.5437
11
-1249.83
21
-16.6665
62
6
0
LINE
8
Undeflected
10
-1249.83
20
-16.6665
11
-1250.06
21
-16.6942
62
7
0
LINE
8
Undeflected
10
-1250.22
20
-16.7
11
-1250.68
21
-16.6542
62
8
0
LINE
8
Undeflected
10
-1250.68
20
-16.6542
11
-1251.12
21
-16.5184
62
9
0
LINE
8
Undeflected
10
-1251.12
20
-16.5184
11
-1251.52
21
-16.2983
62
10
0
LINE
8
Undeflected
10
-1251.52
20
-16.2983
11
-1251.87
21
-16.0024
62
1
0
LINE
8
Undeflected
10
-1251.87
20
-16.0024
11
-1252.16
21
-15.6427
62
2
0
LINE
8
Undeflected
10
-1252.16
20
-15.6427
11
-1252.36
21
-15.2334
62
3
0
LINE
8
Undeflected
10
-1252.36
20
-15.2334
11
-1252.49
21
-14.7909
62
4
0
LINE
8
Undeflected
10
-1252.49
20
-14.7909
11
-1252.51
21
-14.5627
62
5
0
LINE
8
Undeflected
10
-1241.34
20
-8.4196
11
-1241.02
21
-8.49572
62
6
0
LINE
8
Undeflected
10
-1241.02
20
-8.49572
11
-1240.77
21
-8.70825
62
7
0
LINE
8
Undeflected
10
-1240.77
20
-8.70825
11
-1240.65
21
-9.00733
62
8
0
LINE
8
Undeflected
10
-1240.65
20
-9.00733
11
-1240.64
21
-9.11918
62
9
0
LINE
8
Undeflected
10
-1251
20
-8.42107
11
-1241.34
21
-8.4196
62
10
0
LINE
8
Undeflected
10
-1251.7
20
-9.12065
11
-1251.62
21
-8.80358
62
1
0
LINE
8
Undeflected
10
-1251.62
20
-8.80358
11
-1251.41
21
-8.55467
62
2
0
LINE
8
Undeflected
10
-1251.41
20
-8.55467
11
-1251.11
21
-8.42978
62
3
0
LINE
8
Undeflected
10
-1251.11
20
-8.42978
11
-1251
21
-8.42107
62
4
0
LINE
8
Undeflected
10
-1251.7
20
-10.4793
11
-1251.7
21
-9.12065
62
5
0
LINE
8
Undeflected
10
-1251
20
-11.1789
11
-1251.32
21
-11.1027
62
6
0
LINE
8
Undeflected
10
-1251.32
20
-11.1027
11
-1251.57
21
-10.8902
62
7
0
LINE
8
Undeflected
10
-1251.57
20
-10.8902
11
-1251.69
21
-10.5912
62
8
0
LINE
8
Undeflected
10
-1251.69
20
-10.5912
11
-1251.7
21
-10.4793
62
9
0
LINE
8
Undeflected
10
-1241.34
20
-11.1804
11
-1251
21
-11.1789
62
10
0
LINE
8
Undeflected
10
-1240.64
20
-10.4808
11
-1240.72
21
-10.7979
62
1
0
LINE
8
Undeflected
10
-1240.72
20
-10.7979
11
-1240.93
21
-11.0469
62
2
0
LINE
8
Undeflected
10
-1240.93
20
-11.0469
11
-1241.23
21
-11.1717
62
3
0
LINE
8
Undeflected
10
-1241.23
20
-11.1717
11
-1241.34
21
-11.1804
62
4
0
LINE
8
Undeflected
10
-1240.64
20
-9.11918
11
-1240.64
21
-10.4808
62
5
0
LINE
8
Undeflected
10
-1248.73
20
-14.25
11
-1248.73
21
-13.75
62
6
0
LINE
8
Undeflected
10
-1248.73
20
-13.7238
11
-1248.79
21
-13.3429
62
7
0
LINE
8
Undeflected
10
-1248.79
20
-13.3429
11
-1248.97
21
-12.9984
62
8
0
LINE
8
Undeflected
10
-1248.97
20
-12.9984
11
-1249.24
21
-12.721
62
9
0
LINE
8
Undeflected
10
-1249.24
20
-12.721
11
-1249.58
21
-12.5355
62
10
0
LINE
8
Undeflected
10
-1249.58
20
-12.5355
11
-1249.95
21
-12.4585
62
1
0
LINE
8
Undeflected
10
-1249.95
20
-12.4585
11
-1250.34
21
-12.4969
62
2
0
LINE
8
Undeflected
10
-1250.34
20
-12.4969
11
-1250.7
21
-12.6472
62
3
0
LINE
8
Undeflected
10
-1250.7
20
-12.6472
11
-1250.99
21
-12.896
62
4
0
LINE
8
Undeflected
10
-1250.99
20
-12.896
11
-1251.2
21
-13.2212
62
5
0
LINE
8
Undeflected
10
-1251.2
20
-13.2212
11
-1251.3
21
-13.5935
62
6
0
LINE
8
Undeflected
10
-1251.3
20
-13.5935
11
-1251.31
21
-13.7224
62
7
0
LINE
8
Undeflected
10
-1251.31
20
-14.25
11
-1251.31
21
-13.75
62
8
0
LINE
8
Undeflected
10
-1251.31
20
-14.2762
11
-1251.25
21
-14.6571
62
9
0
LINE
8
Undeflected
10
-1251.25
20
-14.6571
11
-1251.07
21
-15.0016
62
10
0
LINE
8
Undeflected
10
-1251.07
20
-15.0016
11
-1250.8
21
-15.279
62
1
0
LINE
8
Undeflected
10
-1250.8
20
-15.279
11
-1250.46
21
-15.4645
62
2
0
LINE
8
Undeflected
10
-1250.46
20
-15.4645
11
-1250.09
21
-15.5415
62
3
0
LINE
8
Undeflected
10
-1250.09
20
-15.5415
11
-1249.7
21
-15.5031
62
4
0
LINE
8
Undeflected
10
-1249.7
20
-15.5031
11
-1249.34
21
-15.3528
62
5
0
LINE
8
Undeflected
10
-1249.34
20
-15.3528
11
-1249.05
21
-15.104
62
6
0
LINE
8
Undeflected
10
-1249.05
20
-15.104
11
-1248.84
21
-14.7788
62
7
0
LINE
8
Undeflected
10
-1248.84
20
-14.7788
11
-1248.74
21
-14.4065
62
8
0
LINE
8
Undeflected
10
-1248.74
20
-14.4065
11
-1248.73
21
-14.2776
62
9
0
LINE
8
Undeflected
10
-1241.34
20
-8.61948
11
-1241.34
21
-8.42678
62
10
0
LINE
8
Undeflected
10
-1241.34
20
-8.61948
11
-1240.99
21
-8.76567
62
1
0
LINE
8
Undeflected
10
-1240.99
20
-8.76567
11
-1240.85
21
-9.04096
62
2
0
LINE
8
Undeflected
10
-1240.64
20
-9.11917
11
-1240.84
21
-9.11917
62
3
0
LINE
8
Undeflected
10
-1240.84
20
-9.11917
11
-1240.84
21
-10.4808
62
4
0
LINE
8
Undeflected
10
-1240.84
20
-10.4808
11
-1240.65
21
-10.4808
62
5
0
LINE
8
Undeflected
10
-1241.34
20
-10.9805
11
-1240.99
21
-10.8343
62
6
0
LINE
8
Undeflected
10
-1240.99
20
-10.8343
11
-1240.85
21
-10.559
62
7
0
LINE
8
Undeflected
10
-1241.34
20
-11.1804
11
-1241.34
21
-10.9809
62
8
0
LINE
8
Undeflected
10
-1241.34
20
-10.9805
11
-1251
21
-10.979
62
9
0
LINE
8
Undeflected
10
-1251
20
-10.979
11
-1251
21
-11.1718
62
10
0
LINE
8
Undeflected
10
-1251.5
20
-10.4794
11
-1251.35
21
-10.8328
62
1
0
LINE
8
Undeflected
10
-1251.35
20
-10.8328
11
-1251.08
21
-10.9729
62
2
0
LINE
8
Undeflected
10
-1251.7
20
-10.4794
11
-1251.5
21
-10.4794
62
3
0
LINE
8
Undeflected
10
-1251.5
20
-10.4794
11
-1251.5
21
-9.12065
62
4
0
LINE
8
Undeflected
10
-1251.5
20
-9.12065
11
-1251.69
21
-9.12065
62
5
0
LINE
8
Undeflected
10
-1251.5
20
-9.12065
11
-1251.35
21
-8.7672
62
6
0
LINE
8
Undeflected
10
-1251.35
20
-8.7672
11
-1251.08
21
-8.62707
62
7
0
LINE
8
Undeflected
10
-1251
20
-8.42107
11
-1251
21
-8.62057
62
8
0
LINE
8
Undeflected
10
-1251
20
-8.62095
11
-1241.34
21
-8.61948
62
9
0
LINE
8
Undeflected
10
-1241.39
20
-8.66666
11
-1250.95
21
-8.66815
62
10
0
LINE
8
Undeflected
10
-1250.95
20
-8.66815
11
-1251
21
-8.62095
62
1
0
LINE
8
Undeflected
10
-1241.34
20
-8.61948
11
-1241.39
21
-8.66666
62
2
0
LINE
8
Undeflected
10
-1240.89
20
-10.4334
11
-1241.03
21
-10.7867
62
3
0
LINE
8
Undeflected
10
-1241.03
20
-10.7867
11
-1241.39
21
-10.933
62
4
0
LINE
8
Undeflected
10
-1240.89
20
-10.4334
11
-1240.89
21
-9.16645
62
5
0
LINE
8
Undeflected
10
-1241.39
20
-8.66666
11
-1241.03
21
-8.81301
62
6
0
LINE
8
Undeflected
10
-1241.03
20
-8.81301
11
-1240.89
21
-9.16645
62
7
0
LINE
8
Undeflected
10
-1251.45
20
-9.16793
11
-1251.31
21
-8.81455
62
8
0
LINE
8
Undeflected
10
-1251.31
20
-8.81455
11
-1250.95
21
-8.66815
62
9
0
LINE
8
Undeflected
10
-1251.45
20
-9.16793
11
-1251.45
21
-10.4319
62
10
0
LINE
8
Undeflected
10
-1250.95
20
-10.9315
11
-1251.31
21
-10.7852
62
1
0
LINE
8
Undeflected
10
-1251.31
20
-10.7852
11
-1251.45
21
-10.4319
62
2
0
LINE
8
Undeflected
10
-1250.95
20
-10.9315
11
-1241.39
21
-10.933
62
3
0
LINE
8
Undeflected
10
-1241.39
20
-10.933
11
-1241.34
21
-10.9805
62
4
0
LINE
8
Undeflected
10
-1251
20
-10.979
11
-1250.95
21
-10.9315
62
5
0
LINE
8
Undeflected
10
-1240.89
20
-9.16645
11
-1240.84
21
-9.11917
62
6
0
LINE
8
Undeflected
10
-1240.84
20
-10.4808
11
-1240.89
21
-10.4334
62
7
0
LINE
8
Undeflected
10
-1251.45
20
-10.4319
11
-1251.5
21
-10.4794
62
8
0
LINE
8
Undeflected
10
-1251.5
20
-9.12065
11
-1251.45
21
-9.16793
62
9
0
LINE
8
Undeflected
10
-1248.93
20
-14.25
11
-1248.73
21
-14.25
62
10
0
LINE
8
Undeflected
10
-1250.02
20
-15.3433
11
-1249.7
21
-15.2944
62
1
0
LINE
8
Undeflected
10
-1249.7
20
-15.2944
11
-1249.4
21
-15.1523
62
2
0
LINE
8
Undeflected
10
-1249.4
20
-15.1523
11
-1249.16
21
-14.9296
62
3
0
LINE
8
Undeflected
10
-1249.16
20
-14.9296
11
-1249
21
-14.6462
62
4
0
LINE
8
Undeflected
10
-1249
20
-14.6462
11
-1248.93
21
-14.3273
62
5
0
LINE
8
Undeflected
10
-1251.11
20
-14.2722
11
-1251.06
21
-14.5942
62
6
0
LINE
8
Undeflected
10
-1251.06
20
-14.5942
11
-1250.91
21
-14.8855
62
7
0
LINE
8
Undeflected
10
-1250.91
20
-14.8855
11
-1250.68
21
-15.12
62
8
0
LINE
8
Undeflected
10
-1250.68
20
-15.12
11
-1250.4
21
-15.2768
62
9
0
LINE
8
Undeflected
10
-1250.4
20
-15.2768
11
-1250.08
21
-15.3419
62
10
0
LINE
8
Undeflected
10
-1251.31
20
-14.25
11
-1251.11
21
-14.25
62
1
0
LINE
8
Undeflected
10
-1251.11
20
-13.75
11
-1251.11
21
-14.25
62
2
0
LINE
8
Undeflected
10
-1251.11
20
-13.75
11
-1251.31
21
-13.75
62
3
0
LINE
8
Undeflected
10
-1250.02
20
-12.6567
11
-1250.34
21
-12.7056
62
4
0
LINE
8
Undeflected
10
-1250.34
20
-12.7056
11
-1250.64
21
-12.8477
62
5
0
LINE
8
Undeflected
10
-1250.64
20
-12.8477
11
-1250.88
21
-13.0704
62
6
0
LINE
8
Undeflected
10
-1250.88
20
-13.0704
11
-1251.04
21
-13.3538
62
7
0
LINE
8
Undeflected
10
-1251.04
20
-13.3538
11
-1251.11
21
-13.6727
62
8
0
LINE
8
Undeflected
10
-1248.93
20
-13.7278
11
-1248.98
21
-13.4058
62
9
0
LINE
8
Undeflected
10
-1248.98
20
-13.4058
11
-1249.13
21
-13.1145
62
10
0
LINE
8
Undeflected
10
-1249.13
20
-13.1145
11
-1249.36
21
-12.88
62
1
0
LINE
8
Undeflected
10
-1249.36
20
-12.88
11
-1249.64
21
-12.7232
62
2
0
LINE
8
Undeflected
10
-1249.64
20
-12.7232
11
-1249.96
21
-12.6581
62
3
0
LINE
8
Undeflected
10
-1248.73
20
-13.75
11
-1248.93
21
-13.75
62
4
0
LINE
8
Undeflected
10
-1248.96
20
-13.7284
11
-1249.01
21
-13.4158
62
5
0
LINE
8
Undeflected
10
-1249.01
20
-13.4158
11
-1249.16
21
-13.133
62
6
0
LINE
8
Undeflected
10
-1249.16
20
-13.133
11
-1249.38
21
-12.9054
62
7
0
LINE
8
Undeflected
10
-1249.38
20
-12.9054
11
-1249.66
21
-12.7532
62
8
0
LINE
8
Undeflected
10
-1249.66
20
-12.7532
11
-1249.97
21
-12.69
62
9
0
LINE
8
Undeflected
10
-1250.02
20
-12.6887
11
-1250.33
21
-12.7361
62
10
0
LINE
8
Undeflected
10
-1250.33
20
-12.7361
11
-1250.62
21
-12.874
62
1
0
LINE
8
Undeflected
10
-1250.62
20
-12.874
11
-1250.85
21
-13.0903
62
2
0
LINE
8
Undeflected
10
-1250.85
20
-13.0903
11
-1251.01
21
-13.3654
62
3
0
LINE
8
Undeflected
10
-1251.01
20
-13.3654
11
-1251.08
21
-13.6749
62
4
0
LINE
8
Undeflected
10
-1251.08
20
-13.75
11
-1251.11
21
-13.75
62
5
0
LINE
8
Undeflected
10
-1248.93
20
-13.75
11
-1248.96
21
-13.75
62
6
0
LINE
8
Undeflected
10
-1251.08
20
-14.2716
11
-1251.03
21
-14.5842
62
7
0
LINE
8
Undeflected
10
-1251.03
20
-14.5842
11
-1250.88
21
-14.867
62
8
0
LINE
8
Undeflected
10
-1250.88
20
-14.867
11
-1250.66
21
-15.0946
62
9
0
LINE
8
Undeflected
10
-1250.66
20
-15.0946
11
-1250.38
21
-15.2468
62
10
0
LINE
8
Undeflected
10
-1250.38
20
-15.2468
11
-1250.07
21
-15.31
62
1
0
LINE
8
Undeflected
10
-1250.02
20
-15.3113
11
-1249.71
21
-15.2639
62
2
0
LINE
8
Undeflected
10
-1249.71
20
-15.2639
11
-1249.42
21
-15.126
62
3
0
LINE
8
Undeflected
10
-1249.42
20
-15.126
11
-1249.19
21
-14.9097
62
4
0
LINE
8
Undeflected
10
-1249.19
20
-14.9097
11
-1249.03
21
-14.6346
62
5
0
LINE
8
Undeflected
10
-1249.03
20
-14.6346
11
-1248.96
21
-14.3251
62
6
0
LINE
8
Undeflected
10
-1248.96
20
-14.25
11
-1248.93
21
-14.25
62
7
0
LINE
8
Undeflected
10
-1251.11
20
-14.25
11
-1251.08
21
-14.25
62
8
0
LINE
8
Undeflected
10
-1260.8
20
-31.4
11
-1260.8
21
-31.4
62
9
0
LINE
8
Undeflected
10
-1260.8
20
-31.4
11
-1260.97
21
-31.4
62
10
0
LINE
8
Undeflected
10
-1260.97
20
-31.4
11
-1260.8
21
-31.4
62
1
0
LINE
8
Undeflected
10
-1260.8
20
-31.4
11
-1261.17
21
-31.4
62
2
0
LINE
8
Undeflected
10
-1261.27
20
-31.4
11
-1261.54
21
-31.4
62
3
0
LINE
8
Undeflected
10
-1261.54
20
-31.4
11
-1261.57
21
-31.4
62
4
0
LINE
8
Undeflected
10
-1261.57
20
-31.4
11
-1261.38
21
-31.4
62
5
0
LINE
8
Undeflected
10
-1261.38
20
-31.4
11
-1261.32
21
-31.4
62
6
0
LINE
8
Undeflected
10
-1261.17
20
-31.4
11
-1260.8
21
-31.4
62
7
0
LINE
8
Undeflected
10
-1260.8
20
-31.4
11
-1261.17
21
-31.4
62
8
0
LINE
8
Undeflected
10
-1261.81
20
-31.4
11
-1261.81
21
-31.4
62
9
0
LINE
8
Undeflected
10
-1261.17
20
-31.4
11
-1261.81
21
-31.4
62
10
0
LINE
8
Undeflected
10
-1261.17
20
-31.4
11
-1260.8
21
-31.4
62
1
0
LINE
8
Undeflected
10
-1261.27
20
-31.1052
11
-1261.82
21
-31.1052
62
2
0
LINE
8
Undeflected
10
-1261.81
20
-31.4
11
-1261.81
21
-31.1967
62
3
0
LINE
8
Undeflected
10
-1261.81
20
-31.1967
11
-1261.82
21
-31.1052
62
4
0
LINE
8
Undeflected
10
-1261.27
20
-31.1052
11
-1261.2
21
-31.3849
62
5
0
LINE
8
Undeflected
10
-1261.2
20
-31.3849
11
-1261.17
21
-31.4
62
6
0
LINE
8
Undeflected
10
-1261.81
20
-31.4
11
-1261.96
21
-31.2606
62
7
0
LINE
8
Undeflected
10
-1261.96
20
-31.2526
11
-1261.82
21
-31.3998
62
8
0
LINE
8
Undeflected
10
-1261.96
20
-31.2526
11
-1261.97
21
-31.1132
62
9
0
LINE
8
Undeflected
10
-1261.97
20
-31.1052
11
-1261.96
21
-31.2524
62
10
0
LINE
8
Undeflected
10
-1262.06
20
-25.5825
11
-1261.97
21
-31.1052
62
1
0
LINE
8
Undeflected
10
-1261.97
20
-31.1052
11
-1262.06
21
-25.5825
62
2
0
LINE
8
Undeflected
10
-1261.88
20
-27.2396
11
-1261.82
21
-31.1052
62
3
0
LINE
8
Undeflected
10
-1261.97
20
-31.1052
11
-1261.83
21
-31.1054
62
4
0
LINE
8
Undeflected
10
-1261.17
20
-31.4
11
-1261.2
21
-31.3844
62
5
0
LINE
8
Undeflected
10
-1261.24
20
-31.3118
11
-1261.26
21
-31.2378
62
6
0
LINE
8
Undeflected
10
-1261.13
20
-25.9571
11
-1261.06
21
-25.9199
62
7
0
LINE
8
Undeflected
10
-1261.03
20
-25.9095
11
-1261.01
21
-25.905
62
8
0
LINE
8
Undeflected
10
-1262.19
20
-23.4
11
-1269.6
21
-23.4
62
9
0
LINE
8
Undeflected
10
-1264.98
20
-24.4526
11
-1263.06
21
-24.4526
62
10
0
LINE
8
Undeflected
10
-1262.21
20
-24.8318
11
-1262.01
21
-25.1294
62
1
0
LINE
8
Undeflected
10
-1262.01
20
-25.1294
11
-1261.92
21
-25.4706
62
2
0
LINE
8
Undeflected
10
-1260.6
20
-25.9
11
-1260.96
21
-25.9
62
3
0
LINE
8
Undeflected
10
-1260.96
20
-25.9
11
-1261.06
21
-25.918
62
4
0
LINE
8
Undeflected
10
-1261.06
20
-25.918
11
-1261.28
21
-26.0965
62
5
0
LINE
8
Undeflected
10
-1261.28
20
-26.0965
11
-1261.27
21
-31.1052
62
6
0
LINE
8
Undeflected
10
-1261.82
20
-31.1052
11
-1261.91
21
-25.5826
62
7
0
LINE
8
Undeflected
10
-1261.91
20
-25.5826
11
-1261.97
21
-25.231
62
8
0
LINE
8
Undeflected
10
-1261.97
20
-25.231
11
-1262.14
21
-24.9165
62
9
0
LINE
8
Undeflected
10
-1262.14
20
-24.9165
11
-1262.39
21
-24.6679
62
10
0
LINE
8
Undeflected
10
-1262.39
20
-24.6679
11
-1262.71
21
-24.508
62
1
0
LINE
8
Undeflected
10
-1262.71
20
-24.508
11
-1263.06
21
-24.4526
62
2
0
LINE
8
Undeflected
10
-1263.06
20
-24.4526
11
-1269.58
21
-24.4526
62
3
0
LINE
8
Undeflected
10
-1269.6
20
-23.4
11
-1269.58
21
-24.4526
62
4
0
LINE
8
Undeflected
10
-1269.6
20
-23.4
11
-1262.19
21
-23.4
62
5
0
LINE
8
Undeflected
10
-1262.19
20
-23.4
11
-1261.75
21
-23.4655
62
6
0
LINE
8
Undeflected
10
-1261.75
20
-23.4655
11
-1261.35
21
-23.6564
62
7
0
LINE
8
Undeflected
10
-1261.35
20
-23.6564
11
-1261.03
21
-23.956
62
8
0
LINE
8
Undeflected
10
-1261.03
20
-23.956
11
-1260.8
21
-24.3381
62
9
0
LINE
8
Undeflected
10
-1260.8
20
-24.3381
11
-1260.7
21
-24.7693
62
10
0
LINE
8
Undeflected
10
-1260.7
20
-24.7693
11
-1260.6
21
-25.9
62
1
0
LINE
8
Undeflected
10
-1261.91
20
-25.5825
11
-1262.06
21
-25.5827
62
2
0
LINE
8
Undeflected
10
-1263.06
20
-24.6
11
-1263.06
21
-24.4606
62
3
0
LINE
8
Undeflected
10
-1263.06
20
-24.6
11
-1262.61
21
-24.7067
62
4
0
LINE
8
Undeflected
10
-1262.61
20
-24.7067
11
-1262.26
21
-25.0038
62
5
0
LINE
8
Undeflected
10
-1262.26
20
-25.0038
11
-1262.08
21
-25.4281
62
6
0
LINE
8
Undeflected
10
-1262.08
20
-25.4281
11
-1262.06
21
-25.5825
62
7
0
LINE
8
Undeflected
10
-1262.06
20
-25.5825
11
-1262.12
21
-25.2777
62
8
0
LINE
8
Undeflected
10
-1262.74
20
-24.6533
11
-1263.04
21
-24.6001
62
9
0
LINE
8
Undeflected
10
-1269.58
20
-24.4526
11
-1269.58
21
-24.5998
62
10
0
LINE
8
Undeflected
10
-1263.06
20
-24.6
11
-1269.58
21
-24.6
62
1
0
LINE
8
Undeflected
10
-1269.58
20
-24.6
11
-1263.06
21
-24.6
62
2
0
LINE
8
Undeflected
10
-1269.58
20
-24.6
11
-1269.73
21
-24.6
62
3
0
LINE
8
Undeflected
10
-1269.73
20
-24.6
11
-1269.73
21
-24.6
62
4
0
LINE
8
Undeflected
10
-1269.73
20
-24.6
11
-1269.86
21
-24.6
62
5
0
LINE
8
Undeflected
10
-1269.86
20
-24.6
11
-1270.18
21
-24.6
62
6
0
LINE
8
Undeflected
10
-1272.49
20
-24.6
11
-1272.64
21
-24.6
62
7
0
LINE
8
Undeflected
10
-1272.64
20
-24.6
11
-1272.49
21
-24.6
62
8
0
LINE
8
Undeflected
10
-1272.49
20
-24.6
11
-1270.18
21
-24.6
62
9
0
LINE
8
Undeflected
10
-1270.18
20
-24.6
11
-1269.86
21
-24.6
62
10
0
LINE
8
Undeflected
10
-1269.86
20
-24.6
11
-1269.73
21
-24.6
62
1
0
LINE
8
Undeflected
10
-1269.73
20
-24.6
11
-1269.73
21
-24.6
62
2
0
LINE
8
Undeflected
10
-1269.73
20
-24.6
11
-1269.59
21
-24.6
62
3
0
LINE
8
Undeflected
10
-1270.18
20
-24.4526
11
-1270.18
21
-24.5998
62
4
0
LINE
8
Undeflected
10
-1270.18
20
-24.4526
11
-1272.49
21
-24.4526
62
5
0
LINE
8
Undeflected
10
-1272.49
20
-24.6
11
-1272.49
21
-24.4606
62
6
0
LINE
8
Undeflected
10
-1272.79
20
-24.4631
11
-1272.65
21
-24.5995
62
7
0
LINE
8
Undeflected
10
-1272.79
20
-24.4631
11
-1272.79
21
-24.4631
62
8
0
LINE
8
Undeflected
10
-1272.64
20
-24.6
11
-1272.79
21
-24.4755
62
9
0
LINE
8
Undeflected
10
-1269.6
20
-23.4
11
-1269.89
21
-23.4
62
10
0
LINE
8
Undeflected
10
-1269.89
20
-23.4
11
-1269.9
21
-23.4
62
1
0
LINE
8
Undeflected
10
-1269.9
20
-23.4
11
-1269.69
21
-23.4
62
2
0
LINE
8
Undeflected
10
-1269.69
20
-23.4
11
-1269.6
21
-23.4
62
3
0
LINE
8
Undeflected
10
-1269.9
20
-23.4
11
-1269.88
21
-24.4526
62
4
0
LINE
8
Undeflected
10
-1269.58
20
-24.4526
11
-1269.87
21
-24.4533
62
5
0
LINE
8
Undeflected
10
-1269.87
20
-24.4533
11
-1269.88
21
-24.4526
62
6
0
LINE
8
Undeflected
10
-1272.49
20
-24.4526
11
-1272.58
21
-23.4
62
7
0
LINE
8
Undeflected
10
-1272.58
20
-23.4
11
-1270.2
21
-23.4
62
8
0
LINE
8
Undeflected
10
-1270.2
20
-23.4
11
-1270.18
21
-24.4526
62
9
0
LINE
8
Undeflected
10
-1272.88
20
-23.4
11
-1272.69
21
-23.4
62
10
0
LINE
8
Undeflected
10
-1272.69
20
-23.4
11
-1272.58
21
-23.4
62
1
0
LINE
8
Undeflected
10
-1272.79
20
-24.4631
11
-1272.88
21
-23.4
62
2
0
LINE
8
Undeflected
10
-1272.49
20
-24.4526
11
-1272.77
21
-24.4632
62
3
0
LINE
8
Undeflected
10
-1272.77
20
-24.4632
11
-1272.79
21
-24.4631
62
4
0
LINE
8
Undeflected
10
-1272.88
20
-23.4
11
-1272.89
21
-23.3356
62
5
0
LINE
8
Undeflected
10
-1272.89
20
-23.3356
11
-1272.88
21
-23.4
62
6
0
LINE
8
Undeflected
10
-1272.82
20
-24.1128
11
-1272.83
21
-23.9889
62
7
0
LINE
8
Undeflected
10
-1272.88
20
-23.4
11
-1272.89
21
-23.3356
62
8
0
LINE
8
Undeflected
10
-1272.89
20
-23.3356
11
-1272.88
21
-23.4
62
9
0
LINE
8
Undeflected
10
-1272.79
20
-24.4631
11
-1272.58
21
-24.4565
62
10
0
LINE
8
Undeflected
10
-1272.58
20
-24.4565
11
-1272.49
21
-24.4526
62
1
0
LINE
8
Undeflected
10
-1270.18
20
-24.4526
11
-1270.2
21
-23.4
62
2
0
LINE
8
Undeflected
10
-1269.9
20
-23.4
11
-1269.88
21
-24.4526
62
3
0
LINE
8
Undeflected
10
-1273.41
20
-23.2882
11
-1273.05
21
-23.5539
62
4
0
LINE
8
Undeflected
10
-1273.05
20
-23.5539
11
-1272.85
21
-23.9454
62
5
0
LINE
8
Undeflected
10
-1272.85
20
-23.9454
11
-1272.82
21
-24.0911
62
6
0
LINE
8
Undeflected
10
-1272.82
20
-24.1128
11
-1272.95
21
-23.6925
62
7
0
LINE
8
Undeflected
10
-1272.95
20
-23.6925
11
-1273.26
21
-23.371
62
8
0
LINE
8
Undeflected
10
-1273.26
20
-23.371
11
-1273.39
21
-23.2974
62
9
0
LINE
8
Undeflected
10
-1272.87
20
-23.5441
11
-1273.1
21
-23.3008
62
10
0
LINE
8
Undeflected
10
-1229.72
20
43.9259
11
-1229.62
21
43.7825
62
1
0
LINE
8
Undeflected
10
-1229.62
20
43.76
11
-1229.71
21
43.9199
62
2
0
LINE
8
Undeflected
10
-1229.66
20
-45.87
11
-1229.62
21
-45.7586
62
3
0
LINE
8
Undeflected
10
-1229.62
20
-45.75
11
-1229.66
21
-45.8675
62
4
0
LINE
8
Undeflected
10
-1229.62
20
-44.9
11
-1229.53
21
-44.6848
62
5
0
LINE
8
Undeflected
10
-1235.06
20
-38.348
11
-1234.95
21
-38.3411
62
6
0
LINE
8
Undeflected
10
-1234.7
20
-38.3364
11
-1232.29
21
-38.3364
62
7
0
LINE
8
Undeflected
10
-1230.06
20
-43.1447
11
-1230.1
21
-43.5099
62
8
0
LINE
8
Undeflected
10
-1230.1
20
-43.5099
11
-1230.21
21
-43.8537
62
9
0
LINE
8
Undeflected
10
-1230.21
20
-43.8537
11
-1230.25
21
-43.9345
62
10
0
LINE
8
Undeflected
10
-1231.62
20
-44.6139
11
-1231.59
21
-44.6161
62
1
0
LINE
8
Undeflected
10
-1230.45
20
-43.9188
11
-1230.72
21
-44.2533
62
2
0
LINE
8
Undeflected
10
-1230.72
20
-44.2533
11
-1231.07
21
-44.4917
62
3
0
LINE
8
Undeflected
10
-1231.07
20
-44.4917
11
-1231.34
21
-44.583
62
4
0
LINE
8
Undeflected
10
-1230.39
20
-43.9574
11
-1230.45
21
-43.9201
62
5
0
LINE
8
Undeflected
10
-1251.31
20
-13.7238
11
-1251.25
21
-13.3429
62
6
0
LINE
8
Undeflected
10
-1251.25
20
-13.3429
11
-1251.07
21
-12.9984
62
7
0
LINE
8
Undeflected
10
-1251.07
20
-12.9984
11
-1250.8
21
-12.721
62
8
0
LINE
8
Undeflected
10
-1250.8
20
-12.721
11
-1250.46
21
-12.5355
62
9
0
LINE
8
Undeflected
10
-1250.46
20
-12.5355
11
-1250.09
21
-12.4585
62
10
0
LINE
8
Undeflected
10
-1250.09
20
-12.4585
11
-1249.7
21
-12.4969
62
1
0
LINE
8
Undeflected
10
-1249.7
20
-12.4969
11
-1249.34
21
-12.6472
62
2
0
LINE
8
Undeflected
10
-1249.34
20
-12.6472
11
-1249.05
21
-12.896
62
3
0
LINE
8
Undeflected
10
-1249.05
20
-12.896
11
-1248.84
21
-13.2212
62
4
0
LINE
8
Undeflected
10
-1248.84
20
-13.2212
11
-1248.74
21
-13.5935
62
5
0
LINE
8
Undeflected
10
-1248.74
20
-13.5935
11
-1248.73
21
-13.7224
62
6
0
LINE
8
Undeflected
10
-1251.08
20
-13.7284
11
-1251.03
21
-13.4158
62
7
0
LINE
8
Undeflected
10
-1251.03
20
-13.4158
11
-1250.88
21
-13.133
62
8
0
LINE
8
Undeflected
10
-1250.88
20
-13.133
11
-1250.66
21
-12.9054
62
9
0
LINE
8
Undeflected
10
-1250.66
20
-12.9054
11
-1250.38
21
-12.7532
62
10
0
LINE
8
Undeflected
10
-1250.38
20
-12.7532
11
-1250.07
21
-12.69
62
1
0
LINE
8
Undeflected
10
-1250.02
20
-15.3113
11
-1250.33
21
-15.2639
62
2
0
LINE
8
Undeflected
10
-1250.33
20
-15.2639
11
-1250.62
21
-15.126
62
3
0
LINE
8
Undeflected
10
-1250.62
20
-15.126
11
-1250.85
21
-14.9097
62
4
0
LINE
8
Undeflected
10
-1250.85
20
-14.9097
11
-1251.01
21
-14.6346
62
5
0
LINE
8
Undeflected
10
-1251.01
20
-14.6346
11
-1251.08
21
-14.3251
62
6
0
LINE
8
Undeflected
10
-1250.04
20
9.90697
11
-1250.36
21
9.96233
62
7
0
LINE
8
Undeflected
10
-1250.36
20
9.96233
11
-1250.66
21
10.1104
62
8
0
LINE
8
Undeflected
10
-1250.66
20
10.1104
11
-1250.89
21
10.3379
62
9
0
LINE
8
Undeflected
10
-1250.89
20
10.3379
11
-1251.05
21
10.6246
62
10
0
LINE
8
Undeflected
10
-1251.05
20
10.6246
11
-1251.11
21
10.9448
62
1
0
LINE
8
Undeflected
10
-1251.11
20
10.9448
11
-1251.08
21
11.2699
62
2
0
LINE
8
Undeflected
10
-1251.08
20
11.2699
11
-1250.95
21
11.5709
62
3
0
LINE
8
Undeflected
10
-1250.95
20
11.5709
11
-1250.74
21
11.821
62
4
0
LINE
8
Undeflected
10
-1250.74
20
11.821
11
-1250.47
21
11.9977
62
5
0
LINE
8
Undeflected
10
-1250.47
20
11.9977
11
-1250.15
21
12.0852
62
6
0
LINE
8
Undeflected
10
-1250.15
20
12.0852
11
-1250.04
21
12.093
62
7
0
LINE
8
Undeflected
10
-1250
20
12.093
11
-1249.68
21
12.0377
62
8
0
LINE
8
Undeflected
10
-1249.68
20
12.0377
11
-1249.38
21
11.8896
62
9
0
LINE
8
Undeflected
10
-1249.38
20
11.8896
11
-1249.15
21
11.6621
62
10
0
LINE
8
Undeflected
10
-1249.15
20
11.6621
11
-1248.99
21
11.3754
62
1
0
LINE
8
Undeflected
10
-1248.99
20
11.3754
11
-1248.93
21
11.0552
62
2
0
LINE
8
Undeflected
10
-1248.93
20
11.0552
11
-1248.96
21
10.7301
62
3
0
LINE
8
Undeflected
10
-1248.96
20
10.7301
11
-1249.09
21
10.4291
62
4
0
LINE
8
Undeflected
10
-1249.09
20
10.4291
11
-1249.3
21
10.179
62
5
0
LINE
8
Undeflected
10
-1249.3
20
10.179
11
-1249.57
21
10.0023
62
6
0
LINE
8
Undeflected
10
-1249.57
20
10.0023
11
-1249.89
21
9.91478
62
7
0
LINE
8
Undeflected
10
-1249.89
20
9.91478
11
-1250
21
9.90699
62
8
0
LINE
8
Undeflected
10
-1229.66
20
43.8446
11
-1229.49
21
43.8475
62
9
0
LINE
8
Undeflected
10
-1229.49
20
43.8475
11
-1229.66
21
43.8446
62
10
0
LINE
8
Undeflected
10
-1229.66
20
43.8446
11
-1229.54
21
43.8466
62
1
0
LINE
8
Undeflected
10
-1229.49
20
43.8475
11
-1229.61
21
43.8455
62
2
0
LINE
8
Undeflected
10
-1280.4
20
-2
11
-1291.19
21
-2
62
3
0
LINE
8
Undeflected
10
-1282.3
20
-2
11
-1280.4
21
-1.99999
62
4
0
LINE
8
Undeflected
10
-1284.54
20
-2
11
-1284.41
21
-2
62
5
0
LINE
8
Undeflected
10
-1283.69
20
-2
11
-1283.45
21
-2
62
6
0
LINE
8
Undeflected
10
-1282.84
20
-2
11
-1282.57
21
-2
62
7
0
LINE
8
Undeflected
10
-1291.69
20
-2.43252
11
-1291.64
21
-2.28884
62
8
0
LINE
8
Undeflected
10
-1291.5
20
-2.10574
11
-1291.38
21
-2.03534
62
9
0
LINE
8
Undeflected
10
-1291.69
20
-2.49127
11
-1291.69
21
-2.43331
62
10
0
LINE
8
Undeflected
10
-1291.69
20
-2.49128
11
-1291.57
21
-2.17127
62
1
0
LINE
8
Undeflected
10
-1291.57
20
-2.17127
11
-1291.27
21
-2.00587
62
2
0
LINE
8
Undeflected
10
-1291.27
20
-2.00587
11
-1291.22
21
-2.00071
62
3
0
LINE
8
Undeflected
10
-1291.69
20
-2.49127
11
-1291.7
21
-3
62
4
0
LINE
8
Undeflected
10
-1291.5
20
-2.99838
11
-1291.5
21
-2.9793
62
5
0
LINE
8
Undeflected
10
-1291.46
20
-2.97956
11
-1291.46
21
-2.99851
62
6
0
LINE
8
Undeflected
10
-1291.7
20
-8
11
-1291.7
21
-3
62
7
0
LINE
8
Undeflected
10
-1291.7
20
-6.32078
11
-1291.7
21
-6.67403
62
8
0
LINE
8
Undeflected
10
-1291.7
20
-6.67403
11
-1291.7
21
-6.8204
62
9
0
LINE
8
Undeflected
10
-1291.7
20
-6.32078
11
-1291.7
21
-4.67922
62
10
0
LINE
8
Undeflected
10
-1291.7
20
-4.1796
11
-1291.7
21
-4.32577
62
1
0
LINE
8
Undeflected
10
-1291.7
20
-4.32577
11
-1291.7
21
-4.67922
62
2
0
LINE
8
Undeflected
10
-1291.7
20
-3
11
-1291.56
21
-2.9983
62
3
0
LINE
8
Undeflected
10
-1291.56
20
-2.9983
11
-1291.22
21
-3
62
4
0
LINE
8
Undeflected
10
-1291.22
20
-8
11
-1291.56
21
-8.0017
62
5
0
LINE
8
Undeflected
10
-1291.56
20
-8.0017
11
-1291.7
21
-8
62
6
0
LINE
8
Undeflected
10
-1291.22
20
-3
11
-1291.22
21
-8
62
7
0
LINE
8
Undeflected
10
-1291.22
20
-3
11
-1280.4
21
-3
62
8
0
LINE
8
Undeflected
10
-1280.4
20
-3
11
-1280.4
21
-4.9
62
9
0
LINE
8
Undeflected
10
-1280.4
20
-4.9
11
-1281.6
21
-4.92095
62
10
0
LINE
8
Undeflected
10
-1281.6
20
-4.92095
11
-1281.6
21
-6.07905
62
1
0
LINE
8
Undeflected
10
-1281.6
20
-6.07905
11
-1280.4
21
-6.1
62
2
0
LINE
8
Undeflected
10
-1280.4
20
-6.1
11
-1280.4
21
-8
62
3
0
LINE
8
Undeflected
10
-1280.4
20
-8
11
-1291.22
21
-8
62
4
0
LINE
8
Undeflected
10
-1291.69
20
-2.49129
11
-1291.69
21
-2.60864
62
5
0
LINE
8
Undeflected
10
-1291.69
20
-2.60864
11
-1291.7
21
-2.90584
62
6
0
LINE
8
Undeflected
10
-1291.7
20
-2.90584
11
-1291.7
21
-2.95543
62
7
0
LINE
8
Undeflected
10
-1291.7
20
-2.98246
11
-1291.7
21
-3
62
8
0
LINE
8
Undeflected
10
-1291.64
20
-2.28575
11
-1291.5
21
-2.10576
62
9
0
LINE
8
Undeflected
10
-1291.19
20
-2
11
-1291.36
21
-2.02857
62
10
0
LINE
8
Undeflected
10
-1282.34
20
-2
11
-1282.34
21
-2
62
1
0
LINE
8
Undeflected
10
-1282.32
20
-2
11
-1282.31
21
-2
62
2
0
LINE
8
Undeflected
10
-1281.53
20
-2
11
-1282.3
21
-2
62
3
0
LINE
8
Undeflected
10
-1282.22
20
-0.961356
11
-1281.53
21
-0.959352
62
4
0
LINE
8
Undeflected
10
-1282.23
20
3.93611
11
-1282.23
21
3.88897
62
5
0
LINE
8
Undeflected
10
-1282.23
20
3.88897
11
-1282.23
21
3.74802
62
6
0
LINE
8
Undeflected
10
-1282.23
20
3.74802
11
-1282.23
21
3.51466
62
7
0
LINE
8
Undeflected
10
-1282.23
20
3.51466
11
-1282.23
21
3.19123
62
8
0
LINE
8
Undeflected
10
-1282.23
20
3.19123
11
-1282.23
21
2.78097
62
9
0
LINE
8
Undeflected
10
-1282.23
20
2.78097
11
-1282.23
21
2.28796
62
10
0
LINE
8
Undeflected
10
-1282.23
20
2.28796
11
-1282.23
21
1.71714
62
1
0
LINE
8
Undeflected
10
-1282.23
20
1.71714
11
-1282.23
21
1.0742
62
2
0
LINE
8
Undeflected
10
-1282.23
20
1.0742
11
-1282.23
21
0.365581
62
3
0
LINE
8
Undeflected
10
-1282.23
20
0.365581
11
-1282.23
21
-0.401647
62
4
0
LINE
8
Undeflected
10
-1280.4
20
-0.956117
11
-1282.23
21
-0.961381
62
5
0
LINE
8
Undeflected
10
-1280.4
20
4
11
-1280.4
21
3.95254
62
6
0
LINE
8
Undeflected
10
-1280.4
20
3.95254
11
-1280.4
21
3.81063
62
7
0
LINE
8
Undeflected
10
-1280.4
20
3.81063
11
-1280.4
21
3.5757
62
8
0
LINE
8
Undeflected
10
-1280.4
20
3.5757
11
-1280.4
21
3.25008
62
9
0
LINE
8
Undeflected
10
-1280.4
20
3.25008
11
-1280.4
21
2.83703
62
10
0
LINE
8
Undeflected
10
-1280.4
20
2.83703
11
-1280.4
21
2.34069
62
1
0
LINE
8
Undeflected
10
-1280.4
20
2.34069
11
-1280.4
21
1.766
62
2
0
LINE
8
Undeflected
10
-1280.4
20
1.766
11
-1280.4
21
1.11871
62
3
0
LINE
8
Undeflected
10
-1280.4
20
1.11871
11
-1280.4
21
0.405295
62
4
0
LINE
8
Undeflected
10
-1280.4
20
0.405295
11
-1280.4
21
-0.367128
62
5
0
LINE
8
Undeflected
10
-1282.23
20
3.93611
11
-1280.4
21
4
62
6
0
LINE
8
Undeflected
10
-1282.3
20
-2
11
-1282.28
21
-1.95352
62
7
0
LINE
8
Undeflected
10
-1282.28
20
-1.95352
11
-1282.27
21
-1.81286
62
8
0
LINE
8
Undeflected
10
-1282.27
20
-1.81286
11
-1282.25
21
-1.58639
62
9
0
LINE
8
Undeflected
10
-1282.25
20
-1.58639
11
-1282.24
21
-1.29381
62
10
0
LINE
8
Undeflected
10
-1282.24
20
-1.29381
11
-1282.23
21
-0.961381
62
1
0
LINE
8
Undeflected
10
-1280.4
20
-0.956117
11
-1280.4
21
-1.30556
62
2
0
LINE
8
Undeflected
10
-1280.4
20
-1.30556
11
-1280.4
21
-1.5989
62
3
0
LINE
8
Undeflected
10
-1280.4
20
-1.5989
11
-1280.4
21
-1.81946
62
4
0
LINE
8
Undeflected
10
-1280.4
20
-1.81946
11
-1280.4
21
-1.95487
62
5
0
LINE
8
Undeflected
10
-1280.4
20
-1.95487
11
-1280.4
21
-1.99999
62
6
0
LINE
8
Undeflected
10
-1284.54
20
-2
11
-1284.16
21
-1.96013
62
7
0
LINE
8
Undeflected
10
-1284.16
20
-1.96013
11
-1283.8
21
-1.84212
62
8
0
LINE
8
Undeflected
10
-1283.8
20
-1.84212
11
-1283.47
21
-1.65067
62
9
0
LINE
8
Undeflected
10
-1283.47
20
-1.65067
11
-1283.18
21
-1.39341
62
10
0
LINE
8
Undeflected
10
-1283.18
20
-1.39341
11
-1282.94
21
-1.0806
62
1
0
LINE
8
Undeflected
10
-1282.94
20
-1.0806
11
-1282.77
21
-0.724716
62
2
0
LINE
8
Undeflected
10
-1282.77
20
-0.724716
11
-1282.71
21
-0.534998
62
3
0
LINE
8
Undeflected
10
-1282.23
20
-0.961381
11
-1282.51
21
-0.801236
62
4
0
LINE
8
Undeflected
10
-1282.51
20
-0.801236
11
-1282.63
21
-0.587039
62
5
0
LINE
8
Undeflected
10
-1282.63
20
-0.587039
11
-1282.68
21
-0.407407
62
6
0
LINE
8
Undeflected
10
-1285.47
20
-2
11
-1284.94
21
-1.91871
62
7
0
LINE
8
Undeflected
10
-1284.94
20
-1.91871
11
-1284.51
21
-1.70419
62
8
0
LINE
8
Undeflected
10
-1284.51
20
-1.70419
11
-1284.17
21
-1.38396
62
9
0
LINE
8
Undeflected
10
-1284.17
20
-1.38396
11
-1284.03
21
-1.18384
62
10
0
LINE
8
Undeflected
10
-1284.03
20
-1.18384
11
-1283.9
21
-0.954589
62
1
0
LINE
8
Undeflected
10
-1283.9
20
-0.954589
11
-1283.8
21
-0.694954
62
2
0
LINE
8
Undeflected
10
-1282.68
20
-0.407407
11
-1283.32
21
-0.407407
62
3
0
LINE
8
Undeflected
10
-1283.32
20
-0.407407
11
-1283.72
21
-0.407407
62
4
0
LINE
8
Undeflected
10
-1283.73
20
-0.407407
11
-1283.73
21
-0.414254
62
5
0
LINE
8
Undeflected
10
-1283.73
20
-0.416523
11
-1283.73
21
-0.424364
62
6
0
LINE
8
Undeflected
10
-1285.47
20
-2
11
-1284.93
21
-1.91461
62
7
0
LINE
8
Undeflected
10
-1284.93
20
-1.91461
11
-1284.59
21
-1.75425
62
8
0
LINE
8
Undeflected
10
-1284.59
20
-1.75425
11
-1284.38
21
-1.59344
62
9
0
LINE
8
Undeflected
10
-1284.38
20
-1.59344
11
-1284.11
21
-1.29318
62
10
0
LINE
8
Undeflected
10
-1284.11
20
-1.29318
11
-1283.89
21
-0.907347
62
1
0
LINE
8
Undeflected
10
-1283.89
20
-0.907347
11
-1283.73
21
-0.416501
62
2
0
LINE
8
Undeflected
10
-1286.2
20
-2.98255
11
-1285.86
21
-2.98255
62
3
0
LINE
8
Undeflected
10
-1289.6
20
-2.98255
11
-1289.59
21
-2.98255
62
4
0
LINE
8
Undeflected
10
-1289.59
20
-2.98255
11
-1289.54
21
-2.98255
62
5
0
LINE
8
Undeflected
10
-1289.54
20
-2.98255
11
-1289.45
21
-2.98255
62
6
0
LINE
8
Undeflected
10
-1289.45
20
-2.98255
11
-1289.34
21
-2.98255
62
7
0
LINE
8
Undeflected
10
-1289.34
20
-2.98255
11
-1289.19
21
-2.98255
62
8
0
LINE
8
Undeflected
10
-1289.19
20
-2.98255
11
-1289.01
21
-2.98255
62
9
0
LINE
8
Undeflected
10
-1289.01
20
-2.98255
11
-1288.8
21
-2.98255
62
10
0
LINE
8
Undeflected
10
-1288.8
20
-2.98255
11
-1288.57
21
-2.98255
62
1
0
LINE
8
Undeflected
10
-1288.57
20
-2.98255
11
-1288.32
21
-2.98255
62
2
0
LINE
8
Undeflected
10
-1288.32
20
-2.98255
11
-1288.04
21
-2.98255
62
3
0
LINE
8
Undeflected
10
-1288.04
20
-2.98255
11
-1287.74
21
-2.98255
62
4
0
LINE
8
Undeflected
10
-1287.74
20
-2.98255
11
-1287.43
21
-2.98255
62
5
0
LINE
8
Undeflected
10
-1287.43
20
-2.98255
11
-1287.11
21
-2.98255
62
6
0
LINE
8
Undeflected
10
-1287.11
20
-2.98255
11
-1286.78
21
-2.98255
62
7
0
LINE
8
Undeflected
10
-1286.78
20
-2.98255
11
-1286.44
21
-2.98255
62
8
0
LINE
8
Undeflected
10
-1283.73
20
-0.416523
11
-1283.73
21
-0.423975
62
9
0
LINE
8
Undeflected
10
-1285.44
20
-1.99976
11
-1284.89
21
-1.90009
62
10
0
LINE
8
Undeflected
10
-1284.89
20
-1.90009
11
-1284.56
21
-1.73204
62
1
0
LINE
8
Undeflected
10
-1284.56
20
-1.73204
11
-1284.36
21
-1.57872
62
2
0
LINE
8
Undeflected
10
-1284.36
20
-1.57872
11
-1284.09
21
-1.27385
62
3
0
LINE
8
Undeflected
10
-1284.09
20
-1.27385
11
-1283.88
21
-0.883014
62
4
0
LINE
8
Undeflected
10
-1283.88
20
-0.883014
11
-1283.79
21
-0.646384
62
5
0
LINE
8
Undeflected
10
-1283.73
20
-0.407407
11
-1283.58
21
0.353235
62
6
0
LINE
8
Undeflected
10
-1283.58
20
0.353235
11
-1283.43
21
1.01151
62
7
0
LINE
8
Undeflected
10
-1283.43
20
1.01151
11
-1283.28
21
1.58073
62
8
0
LINE
8
Undeflected
10
-1283.28
20
1.58073
11
-1283.15
21
2.07118
62
9
0
LINE
8
Undeflected
10
-1283.15
20
2.07118
11
-1283.03
21
2.48792
62
10
0
LINE
8
Undeflected
10
-1283.03
20
2.48792
11
-1282.93
21
2.83496
62
1
0
LINE
8
Undeflected
10
-1282.93
20
2.83496
11
-1282.84
21
3.11627
62
2
0
LINE
8
Undeflected
10
-1282.84
20
3.11627
11
-1282.77
21
3.33525
62
3
0
LINE
8
Undeflected
10
-1282.77
20
3.33525
11
-1282.68
21
3.60571
62
4
0
LINE
8
Undeflected
10
-1282.68
20
3.60571
11
-1282.67
21
3.63346
62
5
0
LINE
8
Undeflected
10
-1282.67
20
3.63727
11
-1282.66
21
3.65731
62
6
0
LINE
8
Undeflected
10
-1282.66
20
3.65722
11
-1282.67
21
3.63803
62
7
0
LINE
8
Undeflected
10
-1282.67
20
3.63724
11
-1282.68
21
3.61414
62
8
0
LINE
8
Undeflected
10
-1283.73
20
-0.416501
11
-1283.61
21
0.200784
62
9
0
LINE
8
Undeflected
10
-1283.61
20
0.200784
11
-1283.48
21
0.808198
62
10
0
LINE
8
Undeflected
10
-1283.48
20
0.808198
11
-1283.33
21
1.40278
62
1
0
LINE
8
Undeflected
10
-1283.33
20
1.40278
11
-1283.18
21
1.97824
62
2
0
LINE
8
Undeflected
10
-1283.18
20
1.97824
11
-1283.02
21
2.525
62
3
0
LINE
8
Undeflected
10
-1283.02
20
2.525
11
-1282.93
21
2.81311
62
4
0
LINE
8
Undeflected
10
-1282.93
20
2.81311
11
-1282.85
21
3.08044
62
5
0
LINE
8
Undeflected
10
-1282.85
20
3.08044
11
-1282.77
21
3.31831
62
6
0
LINE
8
Undeflected
10
-1282.77
20
3.31831
11
-1282.71
21
3.51105
62
7
0
LINE
8
Undeflected
10
-1282.71
20
3.51105
11
-1282.67
21
3.63727
62
8
0
LINE
8
Undeflected
10
-1282.67
20
3.63526
11
-1282.73
21
3.43568
62
9
0
LINE
8
Undeflected
10
-1282.73
20
3.43568
11
-1282.83
21
3.14042
62
10
0
LINE
8
Undeflected
10
-1282.83
20
3.14042
11
-1282.93
21
2.82048
62
1
0
LINE
8
Undeflected
10
-1282.93
20
2.82048
11
-1283.06
21
2.40327
62
2
0
LINE
8
Undeflected
10
-1283.06
20
2.40327
11
-1283.31
21
1.49822
62
3
0
LINE
8
Undeflected
10
-1283.31
20
1.49822
11
-1283.54
21
0.539232
62
4
0
LINE
8
Undeflected
10
-1282.68
20
-0.407407
11
-1282.68
21
0.322316
62
5
0
LINE
8
Undeflected
10
-1282.68
20
0.322316
11
-1282.68
21
0.993864
62
6
0
LINE
8
Undeflected
10
-1282.68
20
0.993864
11
-1282.68
21
1.60053
62
7
0
LINE
8
Undeflected
10
-1282.68
20
1.60053
11
-1282.68
21
2.13625
62
8
0
LINE
8
Undeflected
10
-1282.68
20
2.13625
11
-1282.68
21
2.59566
62
9
0
LINE
8
Undeflected
10
-1282.68
20
2.59566
11
-1282.68
21
2.97419
62
10
0
LINE
8
Undeflected
10
-1282.68
20
2.97419
11
-1282.68
21
3.26805
62
1
0
LINE
8
Undeflected
10
-1282.68
20
3.26805
11
-1282.68
21
3.4743
62
2
0
LINE
8
Undeflected
10
-1282.68
20
3.4743
11
-1282.68
21
3.59089
62
3
0
LINE
8
Undeflected
10
-1282.66
20
3.65731
11
-1282.44
21
3.88305
62
4
0
LINE
8
Undeflected
10
-1282.44
20
3.88305
11
-1282.23
21
3.93611
62
5
0
LINE
8
Undeflected
10
-1286.2
20
-2.98255
11
-1286.2
21
-3
62
6
0
LINE
8
Undeflected
10
-1282.8
20
-3
11
-1282.8
21
-2.98252
62
7
0
LINE
8
Undeflected
10
-1289.6
20
-3
11
-1289.6
21
-2.98255
62
8
0
LINE
8
Undeflected
10
-1280.4
20
-2.98251
11
-1291.22
21
-2.98253
62
9
0
LINE
8
Undeflected
10
-1280.4
20
-2
11
-1280.4
21
-2.10675
62
10
0
LINE
8
Undeflected
10
-1280.4
20
-2.10675
11
-1280.4
21
-2.40391
62
1
0
LINE
8
Undeflected
10
-1280.4
20
-2.40391
11
-1280.4
21
-2.82811
62
2
0
LINE
8
Undeflected
10
-1291.22
20
-2.98253
11
-1291.21
21
-2.53519
62
3
0
LINE
8
Undeflected
10
-1291.21
20
-2.53519
11
-1291.2
21
-2.18692
62
4
0
LINE
8
Undeflected
10
-1291.2
20
-2.18692
11
-1291.19
21
-2.01206
62
5
0
LINE
8
Undeflected
10
-1291.19
20
-2
11
-1280.4
21
-2
62
6
0
LINE
8
Undeflected
10
-1291.22
20
-2.98255
11
-1291.54
21
-2.97917
62
7
0
LINE
8
Undeflected
10
-1291.54
20
-2.97917
11
-1291.7
21
-2.98149
62
8
0
LINE
8
Undeflected
10
-1291.7
20
-2.98149
11
-1291.7
21
-2.98225
62
9
0
LINE
8
Undeflected
10
-1291.7
20
-2.98251
11
-1291.69
21
-2.63952
62
10
0
LINE
8
Undeflected
10
-1291.69
20
-2.63952
11
-1291.69
21
-2.49148
62
1
0
LINE
8
Undeflected
10
-1291.69
20
-2.49148
11
-1291.58
21
-2.18448
62
2
0
LINE
8
Undeflected
10
-1291.58
20
-2.18448
11
-1291.3
21
-2.01158
62
3
0
LINE
8
Undeflected
10
-1291.3
20
-2.01158
11
-1291.19
21
-2.00002
62
4
0
LINE
8
Undeflected
10
-1291.69
20
-8.5667
11
-1291.69
21
-8.50873
62
5
0
LINE
8
Undeflected
10
-1291.7
20
-8
11
-1291.69
21
-8.50873
62
6
0
LINE
8
Undeflected
10
-1291.5
20
-8.0207
11
-1291.5
21
-8.00162
62
7
0
LINE
8
Undeflected
10
-1291.19
20
-9
11
-1291.51
21
-8.88242
62
8
0
LINE
8
Undeflected
10
-1291.51
20
-8.88242
11
-1291.68
21
-8.58498
62
9
0
LINE
8
Undeflected
10
-1291.68
20
-8.58498
11
-1291.69
21
-8.53537
62
10
0
LINE
8
Undeflected
10
-1291.69
20
-8.50872
11
-1291.69
21
-8.50873
62
1
0
LINE
8
Undeflected
10
-1291.36
20
-8.96969
11
-1291.48
21
-8.90618
62
2
0
LINE
8
Undeflected
10
-1291.63
20
-8.74831
11
-1291.68
21
-8.60664
62
3
0
LINE
8
Undeflected
10
-1287.53
20
-9
11
-1288.03
21
-9
62
4
0
LINE
8
Undeflected
10
-1288.03
20
-9
11
-1288.51
21
-9
62
5
0
LINE
8
Undeflected
10
-1288.51
20
-9
11
-1288.95
21
-9
62
6
0
LINE
8
Undeflected
10
-1288.95
20
-9
11
-1289.33
21
-9
62
7
0
LINE
8
Undeflected
10
-1289.33
20
-9
11
-1289.65
21
-9
62
8
0
LINE
8
Undeflected
10
-1289.65
20
-9
11
-1289.87
21
-9
62
9
0
LINE
8
Undeflected
10
-1289.87
20
-9
11
-1290.01
21
-9
62
10
0
LINE
8
Undeflected
10
-1290.01
20
-9
11
-1290.04
21
-9
62
1
0
LINE
8
Undeflected
10
-1287.53
20
-9
11
-1285.47
21
-9
62
2
0
LINE
8
Undeflected
10
-1285.47
20
-9
11
-1285.91
21
-9
62
3
0
LINE
8
Undeflected
10
-1285.91
20
-9
11
-1286.35
21
-9
62
4
0
LINE
8
Undeflected
10
-1286.35
20
-9
11
-1286.79
21
-9
62
5
0
LINE
8
Undeflected
10
-1286.79
20
-9
11
-1287.22
21
-9
62
6
0
LINE
8
Undeflected
10
-1287.22
20
-9
11
-1287.65
21
-9
62
7
0
LINE
8
Undeflected
10
-1287.65
20
-9
11
-1288.05
21
-9
62
8
0
LINE
8
Undeflected
10
-1288.05
20
-9
11
-1288.44
21
-9
62
9
0
LINE
8
Undeflected
10
-1288.44
20
-9
11
-1288.81
21
-9
62
10
0
LINE
8
Undeflected
10
-1288.81
20
-9
11
-1289.15
21
-9
62
1
0
LINE
8
Undeflected
10
-1289.15
20
-9
11
-1289.46
21
-9
62
2
0
LINE
8
Undeflected
10
-1289.46
20
-9
11
-1289.74
21
-9
62
3
0
LINE
8
Undeflected
10
-1289.74
20
-9
11
-1289.99
21
-9
62
4
0
LINE
8
Undeflected
10
-1289.99
20
-9
11
-1290.19
21
-9
62
5
0
LINE
8
Undeflected
10
-1290.19
20
-9
11
-1290.36
21
-9
62
6
0
LINE
8
Undeflected
10
-1290.36
20
-9
11
-1290.48
21
-9
62
7
0
LINE
8
Undeflected
10
-1290.48
20
-9
11
-1290.56
21
-9
62
8
0
LINE
8
Undeflected
10
-1290.56
20
-9
11
-1290.6
21
-9
62
9
0
LINE
8
Undeflected
10
-1290.6
20
-9
11
-1290.58
21
-9
62
10
0
LINE
8
Undeflected
10
-1290.58
20
-9
11
-1290.52
21
-9
62
1
0
LINE
8
Undeflected
10
-1290.52
20
-9
11
-1290.41
21
-9
62
2
0
LINE
8
Undeflected
10
-1290.41
20
-9
11
-1290.26
21
-9
62
3
0
LINE
8
Undeflected
10
-1290.26
20
-9
11
-1290.07
21
-9
62
4
0
LINE
8
Undeflected
10
-1290.07
20
-9
11
-1289.84
21
-9
62
5
0
LINE
8
Undeflected
10
-1289.84
20
-9
11
-1289.57
21
-9
62
6
0
LINE
8
Undeflected
10
-1289.57
20
-9
11
-1289.27
21
-9
62
7
0
LINE
8
Undeflected
10
-1289.27
20
-9
11
-1288.94
21
-9
62
8
0
LINE
8
Undeflected
10
-1288.94
20
-9
11
-1288.58
21
-9
62
9
0
LINE
8
Undeflected
10
-1288.58
20
-9
11
-1288.2
21
-9
62
10
0
LINE
8
Undeflected
10
-1288.2
20
-9
11
-1287.8
21
-9
62
1
0
LINE
8
Undeflected
10
-1287.8
20
-9
11
-1287.38
21
-9
62
2
0
LINE
8
Undeflected
10
-1287.38
20
-9
11
-1286.95
21
-9
62
3
0
LINE
8
Undeflected
10
-1286.95
20
-9
11
-1286.51
21
-9
62
4
0
LINE
8
Undeflected
10
-1286.51
20
-9
11
-1286.07
21
-9
62
5
0
LINE
8
Undeflected
10
-1286.07
20
-9
11
-1285.63
21
-9
62
6
0
LINE
8
Undeflected
10
-1284.54
20
-9
11
-1285.23
21
-9
62
7
0
LINE
8
Undeflected
10
-1284.54
20
-9
11
-1284.41
21
-9
62
8
0
LINE
8
Undeflected
10
-1283.7
20
-9
11
-1283.45
21
-9
62
9
0
LINE
8
Undeflected
10
-1282.84
20
-9
11
-1282.57
21
-9
62
10
0
LINE
8
Undeflected
10
-1280.4
20
-9.00001
11
-1282.3
21
-9
62
1
0
LINE
8
Undeflected
10
-1280.4
20
-9
11
-1280.4
21
-9.00001
62
2
0
LINE
8
Undeflected
10
-1291.19
20
-9
11
-1280.4
21
-9
62
3
0
LINE
8
Undeflected
10
-1280.4
20
-8.01745
11
-1280.4
21
-8.46479
62
4
0
LINE
8
Undeflected
10
-1280.4
20
-8.46479
11
-1280.4
21
-8.81306
62
5
0
LINE
8
Undeflected
10
-1280.4
20
-8.81306
11
-1280.4
21
-8.98794
62
6
0
LINE
8
Undeflected
10
-1291.22
20
-8.01745
11
-1280.4
21
-8.01745
62
7
0
LINE
8
Undeflected
10
-1291.19
20
-9
11
-1291.2
21
-8.89325
62
8
0
LINE
8
Undeflected
10
-1291.2
20
-8.89325
11
-1291.21
21
-8.59605
62
9
0
LINE
8
Undeflected
10
-1291.21
20
-8.59605
11
-1291.22
21
-8.17173
62
10
0
LINE
8
Undeflected
10
-1291.19
20
-9
11
-1280.4
21
-9
62
1
0
LINE
8
Undeflected
10
-1291.36
20
-8.96969
11
-1291.6
21
-8.79027
62
2
0
LINE
8
Undeflected
10
-1291.6
20
-8.79027
11
-1291.63
21
-8.74832
62
3
0
LINE
8
Undeflected
10
-1291.7
20
-5.7333
11
-1291.7
21
-5.52525
62
4
0
LINE
8
Undeflected
10
-1281.74
20
-3
11
-1281.74
21
-2.98252
62
5
0
LINE
8
Undeflected
10
-1281.94
20
-3
11
-1281.94
21
-2.98252
62
6
0
LINE
8
Undeflected
10
-1281.74
20
-8
11
-1281.74
21
-8.01745
62
7
0
LINE
8
Undeflected
10
-1281.94
20
-8.01745
11
-1281.94
21
-8
62
8
0
LINE
8
Undeflected
10
-1289.23
20
-9
11
-1289.22
21
-9.22976
62
9
0
LINE
8
Undeflected
10
-1289.22
20
-9.3
11
-1284.51
21
-9.3
62
10
0
LINE
8
Undeflected
10
-1289.22
20
-9.3
11
-1289.22
21
-9.3
62
1
0
LINE
8
Undeflected
10
-1284.51
20
-9.3
11
-1289.22
21
-9.3
62
2
0
LINE
8
Undeflected
10
-1289.22
20
-1.7467
11
-1289.23
21
-2
62
3
0
LINE
8
Undeflected
10
-1281.74
20
-2.98252
11
-1281.74
21
-3
62
4
0
LINE
8
Undeflected
10
-1289.22
20
-1.7
11
-1289.22
21
-1.73493
62
5
0
LINE
8
Undeflected
10
-1284.51
20
-1.7
11
-1289.22
21
-1.7
62
6
0
LINE
8
Undeflected
10
-1289.22
20
-1.7
11
-1284.51
21
-1.7
62
7
0
LINE
8
Undeflected
10
-1289.22
20
-1.7
11
-1289.22
21
-1.7
62
8
0
LINE
8
Undeflected
10
-1289.22
20
-1.99476
11
-1289.22
21
-1.71437
62
9
0
LINE
8
Undeflected
10
-1289.22
20
-1.71437
11
-1289.22
21
-1.7
62
10
0
LINE
8
Undeflected
10
-1285.33
20
-1.99476
11
-1289.22
21
-1.99476
62
1
0
LINE
8
Undeflected
10
-1289.22
20
-2
11
-1289.22
21
-1.99476
62
2
0
LINE
8
Undeflected
10
-1289.22
20
-1.7
11
-1289.42
21
-1.88498
62
3
0
LINE
8
Undeflected
10
-1289.42
20
-1.89651
11
-1289.22
21
-1.7
62
4
0
LINE
8
Undeflected
10
-1285.33
20
-9.00524
11
-1289.22
21
-9.00524
62
5
0
LINE
8
Undeflected
10
-1289.22
20
-9.3
11
-1289.22
21
-9.09668
62
6
0
LINE
8
Undeflected
10
-1289.22
20
-9.09668
11
-1289.22
21
-9.00524
62
7
0
LINE
8
Undeflected
10
-1289.22
20
-9.00524
11
-1289.22
21
-9
62
8
0
LINE
8
Undeflected
10
-1281.54
20
-8
11
-1281.54
21
-8.01745
62
9
0
LINE
8
Undeflected
10
-1286.2
20
-8
11
-1286.2
21
-8.01745
62
10
0
LINE
8
Undeflected
10
-1282.8
20
-8
11
-1282.8
21
-8.01745
62
1
0
LINE
8
Undeflected
10
-1289.6
20
-8
11
-1289.6
21
-8.01745
62
2
0
LINE
8
Undeflected
10
-1285.47
20
-9
11
-1284.94
21
-9.08129
62
3
0
LINE
8
Undeflected
10
-1284.94
20
-9.08129
11
-1284.51
21
-9.29582
62
4
0
LINE
8
Undeflected
10
-1284.51
20
-9.29582
11
-1284.17
21
-9.61604
62
5
0
LINE
8
Undeflected
10
-1284.17
20
-9.61604
11
-1284.03
21
-9.81616
62
6
0
LINE
8
Undeflected
10
-1284.03
20
-9.81616
11
-1283.9
21
-10.0454
62
7
0
LINE
8
Undeflected
10
-1283.9
20
-10.0454
11
-1283.8
21
-10.305
62
8
0
LINE
8
Undeflected
10
-1285.44
20
-9.00024
11
-1284.89
21
-9.09991
62
9
0
LINE
8
Undeflected
10
-1284.89
20
-9.09991
11
-1284.56
21
-9.26796
62
10
0
LINE
8
Undeflected
10
-1284.56
20
-9.26796
11
-1284.36
21
-9.42128
62
1
0
LINE
8
Undeflected
10
-1284.36
20
-9.42128
11
-1284.09
21
-9.72615
62
2
0
LINE
8
Undeflected
10
-1284.09
20
-9.72615
11
-1283.88
21
-10.117
62
3
0
LINE
8
Undeflected
10
-1283.73
20
-10.5926
11
-1283.9
21
-10.0454
62
4
0
LINE
8
Undeflected
10
-1283.9
20
-10.0454
11
-1284.03
21
-9.81616
62
5
0
LINE
8
Undeflected
10
-1284.03
20
-9.81616
11
-1284.17
21
-9.61604
62
6
0
LINE
8
Undeflected
10
-1284.17
20
-9.61604
11
-1284.33
21
-9.44304
62
7
0
LINE
8
Undeflected
10
-1284.33
20
-9.44304
11
-1284.71
21
-9.17448
62
8
0
LINE
8
Undeflected
10
-1284.71
20
-9.17448
11
-1285.19
21
-9.02109
62
9
0
LINE
8
Undeflected
10
-1283.73
20
-10.5926
11
-1283.73
21
-10.5862
62
10
0
LINE
8
Undeflected
10
-1283.73
20
-10.5835
11
-1283.73
21
-10.576
62
1
0
LINE
8
Undeflected
10
-1285.47
20
-9
11
-1284.93
21
-9.08539
62
2
0
LINE
8
Undeflected
10
-1284.93
20
-9.08539
11
-1284.59
21
-9.24575
62
3
0
LINE
8
Undeflected
10
-1284.59
20
-9.24575
11
-1284.38
21
-9.40656
62
4
0
LINE
8
Undeflected
10
-1284.38
20
-9.40656
11
-1284.11
21
-9.70683
62
5
0
LINE
8
Undeflected
10
-1284.11
20
-9.70683
11
-1283.89
21
-10.0927
62
6
0
LINE
8
Undeflected
10
-1283.89
20
-10.0927
11
-1283.73
21
-10.5835
62
7
0
LINE
8
Undeflected
10
-1282.68
20
-14.6057
11
-1282.67
21
-14.6334
62
8
0
LINE
8
Undeflected
10
-1282.67
20
-14.6372
11
-1282.66
21
-14.6573
62
9
0
LINE
8
Undeflected
10
-1282.66
20
-14.6572
11
-1282.67
21
-14.638
62
10
0
LINE
8
Undeflected
10
-1282.67
20
-14.6372
11
-1282.68
21
-14.6141
62
1
0
LINE
8
Undeflected
10
-1283.73
20
-10.5926
11
-1283.58
21
-11.3519
62
2
0
LINE
8
Undeflected
10
-1283.58
20
-11.3519
11
-1283.43
21
-12.0099
62
3
0
LINE
8
Undeflected
10
-1283.43
20
-12.0099
11
-1283.28
21
-12.5785
62
4
0
LINE
8
Undeflected
10
-1283.28
20
-12.5785
11
-1283.15
21
-13.0681
62
5
0
LINE
8
Undeflected
10
-1283.15
20
-13.0681
11
-1283.03
21
-13.485
62
6
0
LINE
8
Undeflected
10
-1283.03
20
-13.485
11
-1282.93
21
-13.8325
62
7
0
LINE
8
Undeflected
10
-1282.93
20
-13.8325
11
-1282.84
21
-14.1144
62
8
0
LINE
8
Undeflected
10
-1282.84
20
-14.1144
11
-1282.77
21
-14.334
62
9
0
LINE
8
Undeflected
10
-1282.77
20
-14.334
11
-1282.68
21
-14.6057
62
10
0
LINE
8
Undeflected
10
-1283.73
20
-10.5835
11
-1283.61
21
-11.2008
62
1
0
LINE
8
Undeflected
10
-1283.61
20
-11.2008
11
-1283.48
21
-11.8082
62
2
0
LINE
8
Undeflected
10
-1283.48
20
-11.8082
11
-1283.33
21
-12.4028
62
3
0
LINE
8
Undeflected
10
-1283.33
20
-12.4028
11
-1283.18
21
-12.9783
62
4
0
LINE
8
Undeflected
10
-1283.18
20
-12.9783
11
-1283.02
21
-13.525
62
5
0
LINE
8
Undeflected
10
-1283.02
20
-13.525
11
-1282.93
21
-13.8131
62
6
0
LINE
8
Undeflected
10
-1282.93
20
-13.8131
11
-1282.85
21
-14.0804
62
7
0
LINE
8
Undeflected
10
-1282.85
20
-14.0804
11
-1282.77
21
-14.3182
62
8
0
LINE
8
Undeflected
10
-1282.77
20
-14.3182
11
-1282.71
21
-14.511
62
9
0
LINE
8
Undeflected
10
-1282.67
20
-14.6372
11
-1282.73
21
-14.4401
62
10
0
LINE
8
Undeflected
10
-1282.73
20
-14.4401
11
-1282.83
21
-14.1454
62
1
0
LINE
8
Undeflected
10
-1282.83
20
-14.1454
11
-1282.93
21
-13.8262
62
2
0
LINE
8
Undeflected
10
-1282.93
20
-13.8262
11
-1283.05
21
-13.432
62
3
0
LINE
8
Undeflected
10
-1283.05
20
-13.432
11
-1283.3
21
-12.5294
62
4
0
LINE
8
Undeflected
10
-1283.3
20
-12.5294
11
-1283.53
21
-11.5716
62
5
0
LINE
8
Undeflected
10
-1283.53
20
-11.5716
11
-1283.73
21
-10.5835
62
6
0
LINE
8
Undeflected
10
-1282.68
20
-14.6057
11
-1282.68
21
-14.5114
62
7
0
LINE
8
Undeflected
10
-1282.68
20
-14.5114
11
-1282.68
21
-14.3271
62
8
0
LINE
8
Undeflected
10
-1282.68
20
-14.3271
11
-1282.68
21
-14.0546
62
9
0
LINE
8
Undeflected
10
-1282.68
20
-14.0546
11
-1282.68
21
-13.6967
62
10
0
LINE
8
Undeflected
10
-1282.68
20
-13.6967
11
-1282.68
21
-13.2568
62
1
0
LINE
8
Undeflected
10
-1282.68
20
-13.2568
11
-1282.68
21
-12.7394
62
2
0
LINE
8
Undeflected
10
-1282.68
20
-12.7394
11
-1282.68
21
-12.1497
62
3
0
LINE
8
Undeflected
10
-1282.68
20
-12.1497
11
-1282.68
21
-11.4936
62
4
0
LINE
8
Undeflected
10
-1282.68
20
-11.4936
11
-1282.68
21
-10.7775
62
5
0
LINE
8
Undeflected
10
-1283.73
20
-10.5926
11
-1283.34
21
-10.5926
62
6
0
LINE
8
Undeflected
10
-1283.34
20
-10.5926
11
-1282.71
21
-10.5926
62
7
0
LINE
8
Undeflected
10
-1282.68
20
-10.5926
11
-1282.79
21
-10.2117
62
8
0
LINE
8
Undeflected
10
-1282.79
20
-10.2117
11
-1282.98
21
-9.86225
62
9
0
LINE
8
Undeflected
10
-1282.98
20
-9.86225
11
-1283.22
21
-9.55815
62
10
0
LINE
8
Undeflected
10
-1283.22
20
-9.55815
11
-1283.52
21
-9.31153
62
1
0
LINE
8
Undeflected
10
-1283.52
20
-9.31153
11
-1283.86
21
-9.13222
62
2
0
LINE
8
Undeflected
10
-1283.86
20
-9.13222
11
-1284.23
21
-9.02738
62
3
0
LINE
8
Undeflected
10
-1284.23
20
-9.02738
11
-1284.42
21
-9.00431
62
4
0
LINE
8
Undeflected
10
-1282.68
20
-10.5926
11
-1282.6
21
-10.3334
62
5
0
LINE
8
Undeflected
10
-1282.6
20
-10.3334
11
-1282.47
21
-10.1451
62
6
0
LINE
8
Undeflected
10
-1282.47
20
-10.1451
11
-1282.23
21
-10.0386
62
7
0
LINE
8
Undeflected
10
-1282.23
20
-10.0386
11
-1282.24
21
-9.70618
62
8
0
LINE
8
Undeflected
10
-1282.24
20
-9.70618
11
-1282.25
21
-9.41362
62
9
0
LINE
8
Undeflected
10
-1282.25
20
-9.41362
11
-1282.27
21
-9.18714
62
10
0
LINE
8
Undeflected
10
-1282.27
20
-9.18714
11
-1282.28
21
-9.04648
62
1
0
LINE
8
Undeflected
10
-1282.28
20
-9.04648
11
-1282.3
21
-9
62
2
0
LINE
8
Undeflected
10
-1282.23
20
-10.0386
11
-1282.23
21
-10.8418
62
3
0
LINE
8
Undeflected
10
-1282.23
20
-10.8418
11
-1282.23
21
-11.5917
62
4
0
LINE
8
Undeflected
10
-1282.23
20
-11.5917
11
-1282.23
21
-12.2807
62
5
0
LINE
8
Undeflected
10
-1282.23
20
-12.2807
11
-1282.23
21
-12.902
62
6
0
LINE
8
Undeflected
10
-1282.23
20
-12.902
11
-1282.23
21
-13.4493
62
7
0
LINE
8
Undeflected
10
-1282.23
20
-13.4493
11
-1282.23
21
-13.9171
62
8
0
LINE
8
Undeflected
10
-1282.23
20
-13.9171
11
-1282.23
21
-14.3009
62
9
0
LINE
8
Undeflected
10
-1282.23
20
-14.3009
11
-1282.23
21
-14.5967
62
10
0
LINE
8
Undeflected
10
-1282.23
20
-14.5967
11
-1282.23
21
-14.8016
62
1
0
LINE
8
Undeflected
10
-1282.23
20
-14.8016
11
-1282.23
21
-14.9136
62
2
0
LINE
8
Undeflected
10
-1282.66
20
-14.6573
11
-1282.44
21
-14.8831
62
3
0
LINE
8
Undeflected
10
-1282.44
20
-14.8831
11
-1282.23
21
-14.9361
62
4
0
LINE
8
Undeflected
10
-1280.4
20
-10.0439
11
-1280.4
21
-10.8541
62
5
0
LINE
8
Undeflected
10
-1280.4
20
-10.8541
11
-1280.4
21
-11.6108
62
6
0
LINE
8
Undeflected
10
-1280.4
20
-11.6108
11
-1280.4
21
-12.3064
62
7
0
LINE
8
Undeflected
10
-1280.4
20
-12.3064
11
-1280.4
21
-12.934
62
8
0
LINE
8
Undeflected
10
-1280.4
20
-12.934
11
-1280.4
21
-13.4874
62
9
0
LINE
8
Undeflected
10
-1280.4
20
-13.4874
11
-1280.4
21
-13.9609
62
10
0
LINE
8
Undeflected
10
-1280.4
20
-13.9609
11
-1280.4
21
-14.35
62
1
0
LINE
8
Undeflected
10
-1280.4
20
-14.35
11
-1280.4
21
-14.6505
62
2
0
LINE
8
Undeflected
10
-1280.4
20
-14.6505
11
-1280.4
21
-14.8597
62
3
0
LINE
8
Undeflected
10
-1280.4
20
-14.8597
11
-1280.4
21
-14.9753
62
4
0
LINE
8
Undeflected
10
-1280.4
20
-15
11
-1280.4
21
-14.9525
62
5
0
LINE
8
Undeflected
10
-1280.4
20
-14.9525
11
-1280.4
21
-14.8106
62
6
0
LINE
8
Undeflected
10
-1280.4
20
-14.8106
11
-1280.4
21
-14.5757
62
7
0
LINE
8
Undeflected
10
-1282.23
20
-10.0386
11
-1280.4
21
-10.0439
62
8
0
LINE
8
Undeflected
10
-1282.23
20
-14.9361
11
-1280.4
21
-15
62
9
0
LINE
8
Undeflected
10
-1280.4
20
-9.00001
11
-1280.4
21
-9.04513
62
10
0
LINE
8
Undeflected
10
-1280.4
20
-9.04513
11
-1280.4
21
-9.18055
62
1
0
LINE
8
Undeflected
10
-1280.4
20
-9.18055
11
-1280.4
21
-9.40112
62
2
0
LINE
8
Undeflected
10
-1280.4
20
-9.40112
11
-1280.4
21
-9.69447
62
3
0
LINE
8
Undeflected
10
-1280.4
20
-9.69447
11
-1280.4
21
-9.8632
62
4
0
LINE
8
Undeflected
10
-1282.3
20
-9
11
-1281.53
21
-9
62
5
0
LINE
8
Undeflected
10
-1282.3
20
-9
11
-1281.53
21
-9
62
6
0
LINE
8
Undeflected
10
-1282.3
20
-9
11
-1282.32
21
-9
62
7
0
LINE
8
Undeflected
10
-1282.33
20
-9
11
-1282.35
21
-9
62
8
0
LINE
8
Undeflected
10
-1291.7
20
-4.17955
11
-1291.7
21
-4.29073
62
9
0
LINE
8
Undeflected
10
-1291.7
20
-4.29073
11
-1291.7
21
-4.60534
62
10
0
LINE
8
Undeflected
10
-1291.7
20
-4.60534
11
-1291.7
21
-4.67922
62
1
0
LINE
8
Undeflected
10
-1291.7
20
-6.32078
11
-1291.7
21
-6.67183
62
2
0
LINE
8
Undeflected
10
-1291.7
20
-6.67183
11
-1291.7
21
-6.82045
62
3
0
LINE
8
Undeflected
10
-1291.7
20
-8
11
-1291.7
21
-8.01754
62
4
0
LINE
8
Undeflected
10
-1291.7
20
-8.01754
11
-1291.69
21
-8.33742
62
5
0
LINE
8
Undeflected
10
-1291.69
20
-8.33742
11
-1291.69
21
-8.50282
62
6
0
LINE
8
Undeflected
10
-1291.69
20
-8.50282
11
-1291.69
21
-8.50799
62
7
0
LINE
8
Undeflected
10
-1291.7
20
-8.01745
11
-1291.58
21
-8.02083
62
8
0
LINE
8
Undeflected
10
-1291.58
20
-8.02083
11
-1291.28
21
-8.01851
62
9
0
LINE
8
Undeflected
10
-1291.28
20
-8.01851
11
-1291.23
21
-8.01775
62
10
0
LINE
8
Undeflected
10
-1291.19
20
-8.99998
11
-1291.51
21
-8.88788
62
1
0
LINE
8
Undeflected
10
-1291.51
20
-8.88788
11
-1291.68
21
-8.5973
62
2
0
LINE
8
Undeflected
10
-1291.68
20
-8.5973
11
-1291.69
21
-8.50881
62
3
0
LINE
8
Undeflected
10
-1291.7
20
-8.0175
11
-1291.69
21
-8.36494
62
4
0
LINE
8
Undeflected
10
-1291.69
20
-8.36494
11
-1291.69
21
-8.50879
62
5
0
LINE
8
Undeflected
10
-1291.69
20
-8.50879
11
-1291.69
21
-8.50871
62
6
0
LINE
8
Undeflected
10
-1281.54
20
-2.98252
11
-1281.54
21
-3
62
7
0
LINE
8
Undeflected
10
-1235.55
20
-37
11
-1235.12
21
-37
62
8
0
LINE
8
Undeflected
10
-1235.27
20
35
11
-1235.55
21
35
62
9
0
LINE
8
Undeflected
10
-1257.28
20
20.1418
11
-1257.66
21
20.0319
62
10
0
LINE
8
Undeflected
10
-1257.7
20
-22.0261
11
-1257.31
21
-22.1293
62
1
0
LINE
8
Undeflected
10
-1235.24
20
-44.4489
11
-1235.24
21
-43.8744
62
2
0
LINE
8
Undeflected
10
-1235.24
20
-43.8744
11
-1235.25
21
-43.2999
62
3
0
LINE
8
Undeflected
10
-1235.25
20
-43.2999
11
-1235.26
21
-42.7254
62
4
0
LINE
8
Undeflected
10
-1235.26
20
-42.7254
11
-1235.26
21
-42.151
62
5
0
LINE
8
Undeflected
10
-1235.26
20
-42.151
11
-1235.27
21
-41.5765
62
6
0
LINE
8
Undeflected
10
-1235.27
20
-41.5765
11
-1235.27
21
-41.002
62
7
0
LINE
8
Undeflected
10
-1235.27
20
-41.002
11
-1235.28
21
-40.4275
62
8
0
LINE
8
Undeflected
10
-1235.28
20
-40.4275
11
-1235.29
21
-39.8531
62
9
0
LINE
8
Undeflected
10
-1235.29
20
-39.8531
11
-1235.29
21
-39.2786
62
10
0
LINE
8
Undeflected
10
-1235.29
20
-39.2786
11
-1235.3
21
-38.7041
62
1
0
LINE
8
Undeflected
10
-1235.3
20
-38.7041
11
-1234.99
21
-38.5418
62
2
0
LINE
8
Undeflected
10
-1234.99
20
-38.5418
11
-1234.7
21
-38.5289
62
3
0
LINE
8
Undeflected
10
-1234.7
20
-38.5289
11
-1232.46
21
-38.5289
62
4
0
LINE
8
Undeflected
10
-1230.26
20
-42.6995
11
-1230.26
21
-43.0234
62
5
0
LINE
8
Undeflected
10
-1230.26
20
-43.1447
11
-1230.33
21
-43.6054
62
6
0
LINE
8
Undeflected
10
-1230.33
20
-43.6054
11
-1230.53
21
-44.005
62
7
0
LINE
8
Undeflected
10
-1230.53
20
-44.005
11
-1230.83
21
-44.3185
62
8
0
LINE
8
Undeflected
10
-1230.83
20
-44.3185
11
-1231.21
21
-44.5178
62
9
0
LINE
8
Undeflected
10
-1231.21
20
-44.5178
11
-1231.62
21
-44.5843
62
10
0
LINE
8
Undeflected
10
-1231.62
20
-44.5843
11
-1234.7
21
-44.5842
62
1
0
LINE
8
Undeflected
10
-1234.7
20
-44.5842
11
-1235.02
21
-44.5712
62
2
0
LINE
8
Undeflected
10
-1235.02
20
-44.5712
11
-1235.24
21
-44.4489
62
3
0
LINE
8
Undeflected
10
-1256.02
20
33
11
-1255.98
21
33.3973
62
4
0
LINE
8
Undeflected
10
-1255.98
20
33.3973
11
-1255.86
21
33.7788
62
5
0
LINE
8
Undeflected
10
-1255.86
20
33.7788
11
-1255.67
21
34.1293
62
6
0
LINE
8
Undeflected
10
-1255.67
20
34.1293
11
-1255.41
21
34.4347
62
7
0
LINE
8
Undeflected
10
-1255.41
20
34.4347
11
-1255.1
21
34.6829
62
8
0
LINE
8
Undeflected
10
-1255.1
20
34.6829
11
-1254.74
21
34.8641
62
9
0
LINE
8
Undeflected
10
-1254.74
20
34.8641
11
-1254.36
21
34.9709
62
10
0
LINE
8
Undeflected
10
-1254.36
20
34.9709
11
-1254.16
21
34.995
62
1
0
LINE
8
Undeflected
10
-1254.02
20
35
11
-1220.32
21
35
62
2
0
LINE
8
Undeflected
10
-1220.32
20
35
11
-1219.92
21
34.9601
62
3
0
LINE
8
Undeflected
10
-1219.92
20
34.9601
11
-1219.54
21
34.8421
62
4
0
LINE
8
Undeflected
10
-1219.54
20
34.8421
11
-1219.19
21
34.6507
62
5
0
LINE
8
Undeflected
10
-1219.19
20
34.6507
11
-1218.89
21
34.3934
62
6
0
LINE
8
Undeflected
10
-1218.89
20
34.3934
11
-1218.64
21
34.0806
62
7
0
LINE
8
Undeflected
10
-1218.64
20
34.0806
11
-1218.46
21
33.7247
62
8
0
LINE
8
Undeflected
10
-1218.46
20
33.7247
11
-1218.35
21
33.3399
62
9
0
LINE
8
Undeflected
10
-1218.35
20
33.3399
11
-1218.33
21
33.1415
62
10
0
LINE
8
Undeflected
10
-1218.32
20
33
11
-1218.32
21
-35
62
1
0
LINE
8
Undeflected
10
-1218.32
20
-35
11
-1218.36
21
-35.3973
62
2
0
LINE
8
Undeflected
10
-1218.36
20
-35.3973
11
-1218.48
21
-35.7788
62
3
0
LINE
8
Undeflected
10
-1218.48
20
-35.7788
11
-1218.67
21
-36.1293
62
4
0
LINE
8
Undeflected
10
-1218.67
20
-36.1293
11
-1218.93
21
-36.4347
62
5
0
LINE
8
Undeflected
10
-1218.93
20
-36.4347
11
-1219.24
21
-36.6829
62
6
0
LINE
8
Undeflected
10
-1219.24
20
-36.6829
11
-1219.6
21
-36.8641
62
7
0
LINE
8
Undeflected
10
-1219.6
20
-36.8641
11
-1219.98
21
-36.9709
62
8
0
LINE
8
Undeflected
10
-1219.98
20
-36.9709
11
-1220.18
21
-36.995
62
9
0
LINE
8
Undeflected
10
-1220.32
20
-37
11
-1254.02
21
-37
62
10
0
LINE
8
Undeflected
10
-1254.02
20
-37
11
-1254.42
21
-36.9601
62
1
0
LINE
8
Undeflected
10
-1254.42
20
-36.9601
11
-1254.8
21
-36.8421
62
2
0
LINE
8
Undeflected
10
-1254.8
20
-36.8421
11
-1255.15
21
-36.6507
62
3
0
LINE
8
Undeflected
10
-1255.15
20
-36.6507
11
-1255.45
21
-36.3934
62
4
0
LINE
8
Undeflected
10
-1255.45
20
-36.3934
11
-1255.7
21
-36.0806
62
5
0
LINE
8
Undeflected
10
-1255.7
20
-36.0806
11
-1255.88
21
-35.7247
62
6
0
LINE
8
Undeflected
10
-1255.88
20
-35.7247
11
-1255.99
21
-35.3399
62
7
0
LINE
8
Undeflected
10
-1255.99
20
-35.3399
11
-1256.02
21
-35.1415
62
8
0
LINE
8
Undeflected
10
-1256.02
20
-35
11
-1256.02
21
-24
62
9
0
LINE
8
Undeflected
10
-1256.02
20
-24
11
-1256.06
21
-23.6027
62
10
0
LINE
8
Undeflected
10
-1256.06
20
-23.6027
11
-1256.18
21
-23.2212
62
1
0
LINE
8
Undeflected
10
-1256.18
20
-23.2212
11
-1256.37
21
-22.8707
62
2
0
LINE
8
Undeflected
10
-1256.37
20
-22.8707
11
-1256.63
21
-22.5653
62
3
0
LINE
8
Undeflected
10
-1256.63
20
-22.5653
11
-1256.94
21
-22.3171
62
4
0
LINE
8
Undeflected
10
-1256.94
20
-22.3171
11
-1257.3
21
-22.1359
62
5
0
LINE
8
Undeflected
10
-1257.3
20
-22.1359
11
-1257.68
21
-22.0291
62
6
0
LINE
8
Undeflected
10
-1257.68
20
-22.0291
11
-1257.88
21
-22.005
62
7
0
LINE
8
Undeflected
10
-1258.02
20
-22
11
-1271.82
21
-22
62
8
0
LINE
8
Undeflected
10
-1271.82
20
-22
11
-1272.22
21
-21.9601
62
9
0
LINE
8
Undeflected
10
-1272.22
20
-21.9601
11
-1272.6
21
-21.8421
62
10
0
LINE
8
Undeflected
10
-1272.6
20
-21.8421
11
-1272.95
21
-21.6507
62
1
0
LINE
8
Undeflected
10
-1272.95
20
-21.6507
11
-1273.25
21
-21.3934
62
2
0
LINE
8
Undeflected
10
-1273.25
20
-21.3934
11
-1273.5
21
-21.0806
62
3
0
LINE
8
Undeflected
10
-1273.5
20
-21.0806
11
-1273.68
21
-20.7247
62
4
0
LINE
8
Undeflected
10
-1273.68
20
-20.7247
11
-1273.79
21
-20.3399
62
5
0
LINE
8
Undeflected
10
-1273.79
20
-20.3399
11
-1273.82
21
-20.1415
62
6
0
LINE
8
Undeflected
10
-1273.82
20
-20
11
-1273.82
21
18
62
7
0
LINE
8
Undeflected
10
-1273.82
20
18
11
-1273.78
21
18.3973
62
8
0
LINE
8
Undeflected
10
-1273.78
20
18.3973
11
-1273.66
21
18.7788
62
9
0
LINE
8
Undeflected
10
-1273.66
20
18.7788
11
-1273.47
21
19.1293
62
10
0
LINE
8
Undeflected
10
-1273.47
20
19.1293
11
-1273.21
21
19.4347
62
1
0
LINE
8
Undeflected
10
-1273.21
20
19.4347
11
-1272.9
21
19.6829
62
2
0
LINE
8
Undeflected
10
-1272.9
20
19.6829
11
-1272.54
21
19.8641
62
3
0
LINE
8
Undeflected
10
-1272.54
20
19.8641
11
-1272.16
21
19.9709
62
4
0
LINE
8
Undeflected
10
-1272.16
20
19.9709
11
-1271.96
21
19.995
62
5
0
LINE
8
Undeflected
10
-1271.82
20
20
11
-1258.02
21
20
62
6
0
LINE
8
Undeflected
10
-1258.02
20
20
11
-1257.62
21
20.0399
62
7
0
LINE
8
Undeflected
10
-1257.62
20
20.0399
11
-1257.24
21
20.1579
62
8
0
LINE
8
Undeflected
10
-1257.24
20
20.1579
11
-1256.89
21
20.3493
62
9
0
LINE
8
Undeflected
10
-1256.89
20
20.3493
11
-1256.59
21
20.6066
62
10
0
LINE
8
Undeflected
10
-1256.59
20
20.6066
11
-1256.34
21
20.9194
62
1
0
LINE
8
Undeflected
10
-1256.34
20
20.9194
11
-1256.16
21
21.2753
62
2
0
LINE
8
Undeflected
10
-1256.16
20
21.2753
11
-1256.05
21
21.6601
62
3
0
LINE
8
Undeflected
10
-1256.05
20
21.6601
11
-1256.03
21
21.8585
62
4
0
LINE
8
Undeflected
10
-1256.02
20
22
11
-1256.02
21
33
62
5
0
LINE
8
Undeflected
10
-1250.02
20
8.4
11
-1249.5
21
8.45183
62
6
0
LINE
8
Undeflected
10
-1249.5
20
8.45183
11
-1249.01
21
8.60524
62
7
0
LINE
8
Undeflected
10
-1249.01
20
8.60524
11
-1248.55
21
8.85413
62
8
0
LINE
8
Undeflected
10
-1248.55
20
8.85413
11
-1248.15
21
9.18856
62
9
0
LINE
8
Undeflected
10
-1248.15
20
9.18856
11
-1247.83
21
9.59521
62
10
0
LINE
8
Undeflected
10
-1247.83
20
9.59521
11
-1247.6
21
10.0579
62
1
0
LINE
8
Undeflected
10
-1247.6
20
10.0579
11
-1247.46
21
10.5581
62
2
0
LINE
8
Undeflected
10
-1247.46
20
10.5581
11
-1247.42
21
11.0759
62
3
0
LINE
8
Undeflected
10
-1247.42
20
11.0759
11
-1247.49
21
11.5907
62
4
0
LINE
8
Undeflected
10
-1247.49
20
11.5907
11
-1247.66
21
12.082
62
5
0
LINE
8
Undeflected
10
-1247.66
20
12.082
11
-1247.92
21
12.5301
62
6
0
LINE
8
Undeflected
10
-1247.92
20
12.5301
11
-1248.26
21
12.9172
62
7
0
LINE
8
Undeflected
10
-1248.26
20
12.9172
11
-1248.68
21
13.2279
62
8
0
LINE
8
Undeflected
10
-1248.68
20
13.2279
11
-1249.15
21
13.4498
62
9
0
LINE
8
Undeflected
10
-1249.15
20
13.4498
11
-1249.65
21
13.574
62
10
0
LINE
8
Undeflected
10
-1249.65
20
13.574
11
-1249.91
21
13.5978
62
1
0
LINE
8
Undeflected
10
-1250.02
20
13.6
11
-1250.54
21
13.5482
62
2
0
LINE
8
Undeflected
10
-1250.54
20
13.5482
11
-1251.03
21
13.3948
62
3
0
LINE
8
Undeflected
10
-1251.03
20
13.3948
11
-1251.49
21
13.1459
62
4
0
LINE
8
Undeflected
10
-1251.49
20
13.1459
11
-1251.89
21
12.8114
62
5
0
LINE
8
Undeflected
10
-1251.89
20
12.8114
11
-1252.21
21
12.4048
62
6
0
LINE
8
Undeflected
10
-1252.21
20
12.4048
11
-1252.44
21
11.9421
62
7
0
LINE
8
Undeflected
10
-1252.44
20
11.9421
11
-1252.58
21
11.4419
62
8
0
LINE
8
Undeflected
10
-1252.58
20
11.4419
11
-1252.62
21
10.9241
62
9
0
LINE
8
Undeflected
10
-1252.62
20
10.9241
11
-1252.55
21
10.4093
62
10
0
LINE
8
Undeflected
10
-1252.55
20
10.4093
11
-1252.38
21
9.91802
62
1
0
LINE
8
Undeflected
10
-1252.38
20
9.91802
11
-1252.12
21
9.4699
62
2
0
LINE
8
Undeflected
10
-1252.12
20
9.4699
11
-1251.78
21
9.08278
62
3
0
LINE
8
Undeflected
10
-1251.78
20
9.08278
11
-1251.36
21
8.77209
62
4
0
LINE
8
Undeflected
10
-1251.36
20
8.77209
11
-1250.89
21
8.55022
62
5
0
LINE
8
Undeflected
10
-1250.89
20
8.55022
11
-1250.39
21
8.42602
62
6
0
LINE
8
Undeflected
10
-1250.39
20
8.42602
11
-1250.13
21
8.40225
62
7
0
LINE
8
Undeflected
10
-1247.92
20
-12.6
11
-1247.82
21
-12.2612
62
8
0
LINE
8
Undeflected
10
-1247.82
20
-12.2612
11
-1247.54
21
-12.0408
62
9
0
LINE
8
Undeflected
10
-1247.54
20
-12.0408
11
-1247.36
21
-12.0015
62
10
0
LINE
8
Undeflected
10
-1247.32
20
-12
11
-1240.42
21
-12
62
1
0
LINE
8
Undeflected
10
-1240.42
20
-12
11
-1240.08
21
-11.8952
62
2
0
LINE
8
Undeflected
10
-1240.08
20
-11.8952
11
-1239.86
21
-11.6174
62
3
0
LINE
8
Undeflected
10
-1239.86
20
-11.6174
11
-1239.82
21
-11.4424
62
4
0
LINE
8
Undeflected
10
-1239.82
20
-11.4
11
-1239.82
21
-8.2
62
5
0
LINE
8
Undeflected
10
-1239.82
20
-8.2
11
-1239.92
21
-7.86121
62
6
0
LINE
8
Undeflected
10
-1239.92
20
-7.86121
11
-1240.2
21
-7.64078
62
7
0
LINE
8
Undeflected
10
-1240.2
20
-7.64078
11
-1240.38
21
-7.6015
62
8
0
LINE
8
Undeflected
10
-1240.42
20
-7.6
11
-1251.92
21
-7.6
62
9
0
LINE
8
Undeflected
10
-1251.92
20
-7.6
11
-1252.26
21
-7.7048
62
10
0
LINE
8
Undeflected
10
-1252.26
20
-7.7048
11
-1252.48
21
-7.98259
62
1
0
LINE
8
Undeflected
10
-1252.48
20
-7.98259
11
-1252.52
21
-8.15756
62
2
0
LINE
8
Undeflected
10
-1252.52
20
-8.2
11
-1252.52
21
-14.4
62
3
0
LINE
8
Undeflected
10
-1252.52
20
-14.4
11
-1252.47
21
-14.8569
62
4
0
LINE
8
Undeflected
10
-1252.47
20
-14.8569
11
-1252.34
21
-15.2957
62
5
0
LINE
8
Undeflected
10
-1252.34
20
-15.2957
11
-1252.12
21
-15.6987
62
6
0
LINE
8
Undeflected
10
-1252.12
20
-15.6987
11
-1251.82
21
-16.0499
62
7
0
LINE
8
Undeflected
10
-1251.82
20
-16.0499
11
-1251.46
21
-16.3354
62
8
0
LINE
8
Undeflected
10
-1251.46
20
-16.3354
11
-1251.05
21
-16.5437
62
9
0
LINE
8
Undeflected
10
-1251.05
20
-16.5437
11
-1250.61
21
-16.6665
62
10
0
LINE
8
Undeflected
10
-1250.61
20
-16.6665
11
-1250.38
21
-16.6942
62
1
0
LINE
8
Undeflected
10
-1250.22
20
-16.7
11
-1249.76
21
-16.6542
62
2
0
LINE
8
Undeflected
10
-1249.76
20
-16.6542
11
-1249.32
21
-16.5184
62
3
0
LINE
8
Undeflected
10
-1249.32
20
-16.5184
11
-1248.92
21
-16.2983
62
4
0
LINE
8
Undeflected
10
-1248.92
20
-16.2983
11
-1248.57
21
-16.0024
62
5
0
LINE
8
Undeflected
10
-1248.57
20
-16.0024
11
-1248.28
21
-15.6427
62
6
0
LINE
8
Undeflected
10
-1248.28
20
-15.6427
11
-1248.08
21
-15.2334
62
7
0
LINE
8
Undeflected
10
-1248.08
20
-15.2334
11
-1247.95
21
-14.7909
62
8
0
LINE
8
Undeflected
10
-1247.95
20
-14.7909
11
-1247.93
21
-14.5627
62
9
0
LINE
8
Undeflected
10
-1247.92
20
-14.4
11
-1247.92
21
-12.6
62
10
0
LINE
8
Undeflected
10
-1235.22
20
-44.5
11
-1235.18
21
-44.5246
62
1
0
LINE
8
Undeflected
10
-1231.19
20
-44.5101
11
-1230.99
21
-44.4228
62
2
0
LINE
8
Undeflected
10
-1230.53
20
-44.0048
11
-1230.41
21
-43.8114
62
3
0
LINE
8
Undeflected
10
-1230.26
20
-43.1447
11
-1230.26
21
-42.8206
62
4
0
LINE
8
Undeflected
10
-1232.46
20
-38.5289
11
-1234.65
21
-38.5289
62
5
  0
ENDSEC
  0
EOF
